0
SECTION
2
HEADER
9
$INSUNITS
70
4
9
$ACADVER
1
AC1014
9
$HANDSEED
5
FFFF
0
ENDSEC
0
SECTION
2
TABLES
0
TABLE
2
VPORT
5
8
100
AcDbSymbolTable
0
ENDTAB
0
TABLE
2
LTYPE
5
5
100
AcDbSymbolTable
0
LTYPE
5
14
100
AcDbSymbolTableRecord
100
AcDbLinetypeTableRecord
2
BYBLOCK
70
0
0
LTYPE
5
15
100
AcDbSymbolTableRecord
100
AcDbLinetypeTableRecord
2
BYLAYER
70
0
0
ENDTAB
0
TABLE
2
LAYER
5
2
100
AcDbSymbolTable
70
2
0
LAYER
5
50
100
AcDbSymbolTableRecord
100
AcDbLayerTableRecord
2
0
70
0
6
CONTINUOUS
0
ENDTAB
0
TABLE
2
STYLE
5
3
100
AcDbSymbolTable
70
1
0
STYLE
5
11
100
AcDbSymbolTableRecord
100
AcDbTextStyleTableRecord
2
STANDARD
70
0
0
ENDTAB
0
TABLE
2
VIEW
5
6
100
AcDbSymbolTable
70
0
0
ENDTAB
0
TABLE
2
UCS
5
7
100
AcDbSymbolTable
70
0
0
ENDTAB
0
TABLE
2
APPID
5
9
100
AcDbSymbolTable
70
2
0
APPID
5
12
100
AcDbSymbolTableRecord
100
AcDbRegAppTableRecord
2
ACAD
70
0
0
ENDTAB
0
TABLE
2
DIMSTYLE
5
A
100
AcDbSymbolTable
70
1
0
ENDTAB
0
TABLE
2
BLOCK_RECORD
5
1
100
AcDbSymbolTable
70
1
0
BLOCK_RECORD
5
1F
100
AcDbSymbolTableRecord
100
AcDbBlockTableRecord
2
*MODEL_SPACE
0
BLOCK_RECORD
5
1B
100
AcDbSymbolTableRecord
100
AcDbBlockTableRecord
2
*PAPER_SPACE
0
ENDTAB
0
ENDSEC
0
SECTION
2
BLOCKS
0
BLOCK
5
20
100
AcDbEntity
100
AcDbBlockBegin
2
*MODEL_SPACE
0
ENDBLK
5
21
100
AcDbEntity
100
AcDbBlockEnd
0
BLOCK
5
1C
100
AcDbEntity
100
AcDbBlockBegin
2
*PAPER_SPACE
0
ENDBLK
5
1D
100
AcDbEntity
100
AcDbBlockEnd
0
ENDSEC
0
SECTION
2
ENTITIES
0
LWPOLYLINE
5
100
100
AcDbEntity
8
0
100
AcDbPolyline
90
36
70
1
43
0.0
10
13.89914847172896
20
-115.57000000000001
10
-0.47818306301367519
20
-115.57000000000001
10
-0.47818306301368185
20
-119.38
10
-22.119999999999994
20
-119.38
10
-22.119999999999994
20
-96.79000000000002
10
-18.309999999999992
20
-96.79000000000002
10
-18.309999999999992
20
-81.189999999999998
10
-22.119999999999994
20
-81.189999999999998
10
-22.119999999999994
20
-58.600000000000001
10
-18.309999999999992
20
-58.600000000000001
10
-18.309999999999992
20
-43
10
-22.119999999999994
20
-43
10
-22.119999999999994
20
-20.41
10
-18.309999999999992
20
-20.41
10
-18.309999999999992
20
-4.8100000000000005
10
-22.119999999999994
20
-4.8100000000000032
10
-22.11999999999999
20
17.780000000000001
10
-0.47818306301368185
20
17.780000000000001
10
-0.47818306301368185
20
13.970000000000002
10
14.300000429153448
20
13.970000000000004
10
14.300000429153448
20
17.780000000000001
10
35.120000000000005
20
17.779999999999998
10
35.120000000000005
20
-4.8100000000000325
10
31.310000000000002
20
-4.8100000000000271
10
31.310000000000002
20
-20.409999999999982
10
35.120000000000005
20
-20.409999999999982
10
35.120000000000005
20
-43
10
31.310000000000002
20
-43.000000000000007
10
31.310000000000002
20
-58.600000000000001
10
35.120000000000005
20
-58.600000000000001
10
35.120000000000005
20
-81.189999999999998
10
31.310000000000002
20
-81.189999999999998
10
31.310000000000002
20
-96.79000000000002
10
35.120000000000005
20
-96.79000000000002
10
35.120000000000005
20
-119.38
10
13.887358708275297
20
-119.38
0
LWPOLYLINE
5
101
100
AcDbEntity
8
0
100
AcDbPolyline
90
36
70
1
43
0.0
10
65.521816936986312
20
17.780000000000001
10
65.521816936986312
20
13.970000000000002
10
80.300000429153457
20
13.970000000000004
10
80.300000429153457
20
17.780000000000001
10
101.12
20
17.779999999999994
10
101.12
20
-4.8100000000000005
10
97.310000000000002
20
-4.8100000000000058
10
97.310000000000002
20
-20.410000000000004
10
101.12
20
-20.41
10
101.12
20
-43
10
97.310000000000002
20
-43.000000000000007
10
97.310000000000002
20
-58.600000000000001
10
101.12
20
-58.600000000000001
10
101.11999999999998
20
-81.189999999999998
10
97.310000000000002
20
-81.189999999999998
10
97.310000000000002
20
-96.79000000000002
10
101.11999999999998
20
-96.79000000000002
10
101.12
20
-119.38
10
79.887358708275286
20
-119.38
10
79.899148471728964
20
-115.57000000000001
10
65.521816936986312
20
-115.57000000000001
10
65.521816936986312
20
-119.38
10
43.88000000000001
20
-119.38
10
43.88000000000001
20
-96.79000000000002
10
47.690000000000012
20
-96.79000000000002
10
47.690000000000012
20
-81.189999999999998
10
43.88000000000001
20
-81.189999999999998
10
43.88000000000001
20
-58.600000000000001
10
47.690000000000012
20
-58.600000000000001
10
47.690000000000012
20
-43
10
43.88000000000001
20
-43
10
43.88000000000001
20
-20.409999999999989
10
47.690000000000012
20
-20.409999999999986
10
47.690000000000012
20
-4.8100000000000165
10
43.88000000000001
20
-4.8100000000000209
10
43.88000000000001
20
17.780000000000001
0
LINE
5
102
100
AcDbEntity
8
0
100
AcDbLine
10
80.300000429153457
20
13.970000000000004
30
0
11
72.5
21
13.970000000000004
31
0
0
LINE
5
103
100
AcDbEntity
8
0
100
AcDbLine
10
-22.119999999999994
20
-58.600000000000001
30
0
11
-22.119999999999994
21
-81.189999999999998
31
0
0
LINE
5
104
100
AcDbEntity
8
0
100
AcDbLine
10
-22.119999999999994
20
-20.41
30
0
11
-22.119999999999994
21
-43
31
0
0
LWPOLYLINE
5
105
100
AcDbEntity
8
0
100
AcDbPolyline
90
58
70
1
43
0.0
10
121.88000000000001
20
-4.809999999999965
10
125.69000000000001
20
-4.809999999999965
10
125.69000000000001
20
13.970000000000001
10
147.8900000000001
20
13.970000000000001
10
147.88999999999996
20
17.779999999999966
10
155.69000000000003
20
17.779999999999966
10
163.4899999999995
20
17.779999999999959
10
163.48999999999972
20
13.970000000000001
10
177.89000000000001
20
13.970000000000001
10
177.89000000000001
20
17.780000000000001
10
185.69000000000003
20
17.780000000000001
10
193.49000000000001
20
17.780000000000001
10
193.49000000000001
20
13.970000000000001
10
207.8900000000001
20
13.970000000000001
10
207.88999999999993
20
17.779999999999966
10
215.69000000000003
20
17.779999999999966
10
223.4899999999995
20
17.779999999999959
10
223.48999999999972
20
13.970000000000001
10
245.69000000000003
20
13.970000000000001
10
245.69000000000003
20
-4.8099999999999676
10
249.5
20
-4.8099999999999676
10
249.5
20
-20.409999999999965
10
245.69000000000003
20
-20.409999999999965
10
245.69000000000003
20
-42.999999999999929
10
249.5
20
-42.999999999999929
10
249.5
20
-58.600000000000001
10
245.69000000000003
20
-58.600000000000001
10
245.69000000000003
20
-81.189999999999998
10
249.5
20
-81.189999999999998
10
249.5
20
-96.79000000000002
10
245.69000000000003
20
-96.79000000000002
10
245.69000000000003
20
-115.57000000000001
10
229.48999999999995
20
-115.56999999999999
10
229.48999999999995
20
-119.38
10
221.68999999999997
20
-119.37999999999997
10
213.88999999999999
20
-119.37999999999997
10
213.88999999999999
20
-115.56999999999999
10
193.48999999999995
20
-115.56999999999999
10
193.48999999999995
20
-119.37999999999997
10
185.68999999999994
20
-119.37999999999997
10
177.88999999999999
20
-119.37999999999995
10
177.88999999999999
20
-115.56999999999995
10
157.48999999999995
20
-115.56999999999995
10
157.48999999999995
20
-119.37999999999995
10
149.68999999999997
20
-119.37999999999995
10
141.88999999999999
20
-119.37999999999994
10
141.88999999999999
20
-115.56999999999995
10
125.69000000000001
20
-115.57000000000001
10
125.69000000000001
20
-96.79000000000002
10
121.88000000000001
20
-96.79000000000002
10
121.88000000000001
20
-81.189999999999998
10
125.69000000000001
20
-81.189999999999998
10
125.69000000000001
20
-58.600000000000001
10
121.88000000000001
20
-58.600000000000001
10
121.88000000000001
20
-42.999999999999929
10
125.69000000000001
20
-42.999999999999929
10
125.69000000000001
20
-20.409999999999965
10
121.88000000000001
20
-20.409999999999965
0
LINE
5
106
100
AcDbEntity
8
0
100
AcDbLine
10
125.69000000000001
20
13.969999999999995
30
0
11
128.30066687835401
21
13.969999999999995
31
0
0
LINE
5
107
100
AcDbEntity
8
0
100
AcDbLine
10
147.88999999999996
20
38.889878845214852
30
0
11
157.48999999999998
21
38.889878845214852
31
0
0
LINE
5
108
100
AcDbEntity
8
0
100
AcDbLine
10
177.89000000000001
20
35.079878845214857
30
0
11
177.89000000000001
21
38.889878845214852
31
0
0
LINE
5
109
100
AcDbEntity
8
0
100
AcDbLine
10
177.89000000000001
20
38.889878845214852
30
0
11
193.49000000000001
21
38.889878845214852
31
0
0
LINE
5
110
100
AcDbEntity
8
0
100
AcDbLine
10
193.49000000000001
20
38.889878845214852
30
0
11
193.49000000000001
21
35.079878845214857
31
0
0
LINE
5
111
100
AcDbEntity
8
0
100
AcDbLine
10
193.49000000000001
20
35.079878845214857
30
0
11
207.8899999999993
21
35.079878845214864
31
0
0
LINE
5
112
100
AcDbEntity
8
0
100
AcDbLine
10
229.48999999999998
20
35.079878845214857
30
0
11
245.69000000000003
21
35.079878845214857
31
0
0
LINE
5
113
100
AcDbEntity
8
0
100
AcDbLine
10
125.69000000000001
20
35.079878845214857
30
0
11
141.89000000000004
21
35.079878845214843
31
0
0
LINE
5
114
100
AcDbEntity
8
0
100
AcDbLine
10
163.4899999999995
20
35.079878845214857
30
0
11
177.89000000000001
21
35.079878845214857
31
0
0
LINE
5
115
100
AcDbEntity
8
0
100
AcDbLine
10
125.69000000000001
20
71.089478845214856
30
0
11
121.88000000000001
21
71.089478845214856
31
0
0
LINE
5
116
100
AcDbEntity
8
0
100
AcDbLine
10
121.88000000000001
20
71.089478845214856
30
0
11
121.88000000000001
21
63.699878845214855
31
0
0
LINE
5
117
100
AcDbEntity
8
0
100
AcDbLine
10
121.88000000000001
20
63.699878845214855
30
0
11
121.88000000000001
21
56.310278845214853
31
0
0
LINE
5
118
100
AcDbEntity
8
0
100
AcDbLine
10
121.88000000000001
20
56.310278845214853
30
0
11
125.69000000000001
21
56.310278845214853
31
0
0
LINE
5
119
100
AcDbEntity
8
0
100
AcDbLine
10
245.69000000000003
20
71.089478845214856
30
0
11
249.5
21
71.089478845214856
31
0
0
LINE
5
120
100
AcDbEntity
8
0
100
AcDbLine
10
249.5
20
71.089478845214856
30
0
11
249.5
21
63.699878845214855
31
0
0
LINE
5
121
100
AcDbEntity
8
0
100
AcDbLine
10
249.5
20
63.699878845214855
30
0
11
249.5
21
56.310278845214853
31
0
0
LINE
5
122
100
AcDbEntity
8
0
100
AcDbLine
10
249.5
20
56.310278845214853
30
0
11
245.69000000000003
21
56.310278845214853
31
0
0
LWPOLYLINE
5
123
100
AcDbEntity
8
0
100
AcDbPolyline
90
58
70
1
43
0.0
10
265.88
20
-81.189999999999998
10
269.69
20
-81.189999999999998
10
269.69
20
-58.600000000000001
10
265.88
20
-58.600000000000001
10
265.88
20
-42.999999999999929
10
269.69
20
-42.999999999999929
10
269.69
20
-20.409999999999965
10
265.88
20
-20.409999999999965
10
265.88
20
-4.809999999999965
10
269.69
20
-4.809999999999965
10
269.69
20
13.970000000000001
10
291.88999999999845
20
13.970000000000024
10
291.89000000000124
20
17.779999999999983
10
299.68999999999994
20
17.779999999999983
10
307.48999999999916
20
17.77999999999998
10
307.49000000000018
20
13.970000000000024
10
321.8900000000001
20
13.970000000000001
10
321.8900000000001
20
17.780000000000001
10
329.68999999999994
20
17.780000000000001
10
337.48999999999995
20
17.780000000000001
10
337.48999999999995
20
13.970000000000001
10
351.88999999999845
20
13.970000000000024
10
351.89000000000124
20
17.779999999999983
10
359.68999999999994
20
17.779999999999983
10
367.4899999999991
20
17.77999999999998
10
367.49000000000018
20
13.970000000000024
10
389.69000000000005
20
13.970000000000001
10
389.69000000000005
20
-4.8099999999999676
10
393.49999999999994
20
-4.8099999999999676
10
393.49999999999994
20
-20.409999999999965
10
389.69000000000005
20
-20.409999999999965
10
389.69000000000005
20
-42.999999999999929
10
393.49999999999994
20
-42.999999999999929
10
393.49999999999994
20
-58.600000000000001
10
389.69000000000005
20
-58.600000000000001
10
389.69000000000005
20
-81.189999999999998
10
393.49999999999994
20
-81.189999999999998
10
393.49999999999994
20
-96.79000000000002
10
389.69000000000005
20
-96.79000000000002
10
389.69000000000005
20
-115.57000000000001
10
373.4899999999999
20
-115.56999999999999
10
373.4899999999999
20
-119.38
10
365.69000000000005
20
-119.37999999999997
10
357.88999999999999
20
-119.37999999999997
10
357.88999999999999
20
-115.56999999999999
10
337.48999999999995
20
-115.56999999999999
10
337.48999999999995
20
-119.37999999999997
10
329.68999999999994
20
-119.37999999999997
10
321.88999999999993
20
-119.37999999999995
10
321.88999999999993
20
-115.56999999999995
10
301.48999999999995
20
-115.56999999999995
10
301.48999999999995
20
-119.37999999999995
10
293.68999999999994
20
-119.37999999999995
10
285.88999999999999
20
-119.37999999999994
10
285.88999999999999
20
-115.56999999999995
10
269.69
20
-115.57000000000001
10
269.69
20
-96.79000000000002
10
265.88
20
-96.79000000000002
0
LWPOLYLINE
5
124
100
AcDbEntity
8
0
100
AcDbPolyline
90
38
70
1
43
0.0
10
337.48999999999995
20
88.509878845214857
10
321.8900000000001
20
88.509878845214857
10
321.8900000000001
20
92.319878845214859
10
301.48999999999995
20
92.319878845214859
10
301.48999999999995
20
88.509878845214857
10
285.89000000000004
20
88.509878845214857
10
285.89000000000004
20
92.319878845214859
10
269.69
20
92.319878845214859
10
269.69
20
71.089478845214856
10
265.88
20
71.089478845214856
10
265.88
20
63.699878845214855
10
265.88
20
56.310278845214853
10
269.69
20
56.310278845214853
10
269.69
20
35.079878845214857
10
285.89000000000004
20
35.079878845214857
10
285.89000000000004
20
38.889878845214852
10
301.48999999999995
20
38.889878845214852
10
301.48999999999995
20
35.079878845214857
10
321.8900000000001
20
35.079878845214857
10
321.8900000000001
20
38.889878845214852
10
337.48999999999995
20
38.889878845214852
10
337.48999999999995
20
35.079878845214857
10
357.88999999999999
20
35.079878845214857
10
357.88999999999999
20
38.889878845214852
10
373.4899999999999
20
38.889878845214852
10
373.4899999999999
20
35.079878845214857
10
389.69000000000005
20
35.079878845214857
10
389.69000000000005
20
56.310278845214853
10
393.49999999999994
20
56.310278845214853
10
393.49999999999994
20
63.699878845214855
10
393.49999999999994
20
71.089478845214856
10
389.69000000000005
20
71.089478845214856
10
389.69000000000005
20
92.319878845214859
10
373.4899999999999
20
92.319878845214859
10
373.4899999999999
20
88.509878845214857
10
357.88999999999999
20
88.509878845214857
10
357.88999999999999
20
92.319878845214859
10
337.48999999999995
20
92.319878845214859
0
LINE
5
125
100
AcDbEntity
8
0
100
AcDbLine
10
269.69
20
13.969999999999995
30
0
11
272.30066687835404
21
13.969999999999995
31
0
0
LINE
5
126
100
AcDbEntity
8
0
100
AcDbLine
10
125.69000000000001
20
-58.600000000000001
30
0
11
125.69000000000001
21
-81.189999999999998
31
0
0
LINE
5
127
100
AcDbEntity
8
0
100
AcDbLine
10
125.69000000000001
20
-96.79000000000002
30
0
11
125.69000000000001
21
-115.57000000000001
31
0
0
LINE
5
128
100
AcDbEntity
8
0
100
AcDbLine
10
125.69000000000001
20
92.319878845214859
30
0
11
125.69000000000001
21
71.089478845214856
31
0
0
LINE
5
129
100
AcDbEntity
8
0
100
AcDbLine
10
125.69000000000001
20
56.310278845214853
30
0
11
125.69000000000001
21
35.079878845214857
31
0
0
LINE
5
130
100
AcDbEntity
8
0
100
AcDbLine
10
223.48999999999833
20
38.889878845214852
30
0
11
213.89000000000004
21
38.889878845214852
31
0
0
LINE
5
131
100
AcDbEntity
8
0
100
AcDbLine
10
193.49000000000001
20
38.889878845214852
30
0
11
177.89000000000001
21
38.889878845214852
31
0
0
LINE
5
132
100
AcDbEntity
8
0
100
AcDbLine
10
157.48999999999998
20
38.889878845214852
30
0
11
147.88999999999996
21
38.889878845214852
31
0
0
LINE
5
133
100
AcDbEntity
8
0
100
AcDbLine
10
245.69000000000003
20
35.079878845214857
30
0
11
245.69000000000003
21
56.310278845214853
31
0
0
LINE
5
134
100
AcDbEntity
8
0
100
AcDbLine
10
245.69000000000003
20
71.089478845214856
30
0
11
245.69000000000003
21
92.319878845214859
31
0
0
LINE
5
135
100
AcDbEntity
8
0
100
AcDbLine
10
285.89000000000004
20
88.509878845214857
30
0
11
301.48999999999995
21
88.509878845214857
31
0
0
LINE
5
136
100
AcDbEntity
8
0
100
AcDbLine
10
321.8900000000001
20
88.509878845214857
30
0
11
337.48999999999995
21
88.509878845214857
31
0
0
LINE
5
137
100
AcDbEntity
8
0
100
AcDbLine
10
357.88999999999999
20
88.509878845214857
30
0
11
373.4899999999999
21
88.509878845214857
31
0
0
LINE
5
138
100
AcDbEntity
8
0
100
AcDbLine
10
373.4899999999999
20
38.889878845214852
30
0
11
357.88999999999999
21
38.889878845214852
31
0
0
LINE
5
139
100
AcDbEntity
8
0
100
AcDbLine
10
337.48999999999995
20
38.889878845214852
30
0
11
321.8900000000001
21
38.889878845214852
31
0
0
LINE
5
140
100
AcDbEntity
8
0
100
AcDbLine
10
301.48999999999995
20
38.889878845214852
30
0
11
285.89000000000004
21
38.889878845214852
31
0
0
LINE
5
141
100
AcDbEntity
8
0
100
AcDbLine
10
269.69
20
-96.79000000000002
30
0
11
269.69
21
-115.57000000000001
31
0
0
LINE
5
142
100
AcDbEntity
8
0
100
AcDbLine
10
269.69
20
-58.600000000000001
30
0
11
269.69
21
-81.189999999999998
31
0
0
LINE
5
143
100
AcDbEntity
8
0
100
AcDbLine
10
269.69
20
13.970000000000001
30
0
11
269.69
21
-4.809999999999965
31
0
0
LINE
5
144
100
AcDbEntity
8
0
100
AcDbLine
10
269.69
20
-20.409999999999965
30
0
11
269.69
21
-42.999999999999929
31
0
0
LINE
5
145
100
AcDbEntity
8
0
100
AcDbLine
10
125.69000000000001
20
13.970000000000001
30
0
11
125.69000000000001
21
-4.809999999999965
31
0
0
LINE
5
146
100
AcDbEntity
8
0
100
AcDbLine
10
125.69000000000001
20
-20.409999999999965
30
0
11
125.69000000000001
21
-42.999999999999929
31
0
0
LINE
5
147
100
AcDbEntity
8
0
100
AcDbLine
10
147.88999999999996
20
35.07987884521485
30
0
11
147.88999999999996
21
38.889878845214852
31
0
0
LINE
5
148
100
AcDbEntity
8
0
100
AcDbLine
10
157.48999999999998
20
38.889878845214852
30
0
11
163.4899999999995
21
38.889878845214852
31
0
0
LINE
5
149
100
AcDbEntity
8
0
100
AcDbLine
10
163.4899999999995
20
38.889878845214852
30
0
11
163.4899999999995
21
35.079878845214857
31
0
0
LINE
5
150
100
AcDbEntity
8
0
100
AcDbLine
10
141.89000000000004
20
35.079878845214843
30
0
11
147.88999999999996
21
35.07987884521485
31
0
0
LINE
5
151
100
AcDbEntity
8
0
100
AcDbLine
10
207.8899999999993
20
35.079878845214864
30
0
11
207.88999999999916
21
38.889878845214511
31
0
0
LINE
5
152
100
AcDbEntity
8
0
100
AcDbLine
10
223.48999999999853
20
35.079878845214864
30
0
11
223.48999999999833
21
38.889878845214852
31
0
0
LINE
5
153
100
AcDbEntity
8
0
100
AcDbLine
10
213.89000000000004
20
38.889878845214852
30
0
11
207.88999999999916
21
38.889878845214511
31
0
0
LINE
5
154
100
AcDbEntity
8
0
100
AcDbLine
10
229.48999999999998
20
35.079878845214857
30
0
11
223.48999999999853
21
35.079878845214864
31
0
0
LINE
5
155
100
AcDbEntity
8
0
100
AcDbLine
10
177.89000000000001
20
88.509878845214857
30
0
11
193.49000000000001
21
88.509878845214857
31
0
0
LINE
5
156
100
AcDbEntity
8
0
100
AcDbLine
10
229.48999999999998
20
92.319878845214859
30
0
11
245.69000000000003
21
92.319878845214859
31
0
0
LINE
5
157
100
AcDbEntity
8
0
100
AcDbLine
10
157.48999999999998
20
88.509878845214857
30
0
11
147.88999999999996
21
88.509878845214857
31
0
0
LINE
5
158
100
AcDbEntity
8
0
100
AcDbLine
10
125.69000000000001
20
92.319878845214859
30
0
11
141.89000000000004
21
92.319878845214873
31
0
0
LINE
5
159
100
AcDbEntity
8
0
100
AcDbLine
10
141.89000000000004
20
92.319878845214873
30
0
11
147.88999999999996
21
92.319878845214859
31
0
0
LINE
5
160
100
AcDbEntity
8
0
100
AcDbLine
10
147.88999999999996
20
92.319878845214859
30
0
11
147.88999999999996
21
88.509878845214857
31
0
0
LINE
5
161
100
AcDbEntity
8
0
100
AcDbLine
10
157.48999999999998
20
88.509878845214857
30
0
11
163.4899999999995
21
88.509878845214857
31
0
0
LINE
5
162
100
AcDbEntity
8
0
100
AcDbLine
10
193.49000000000001
20
88.509878845214857
30
0
11
177.89000000000001
21
88.509878845214857
31
0
0
LINE
5
163
100
AcDbEntity
8
0
100
AcDbLine
10
147.88999999999996
20
88.509878845214857
30
0
11
157.48999999999998
21
88.509878845214857
31
0
0
LINE
5
164
100
AcDbEntity
8
0
100
AcDbLine
10
177.89000000000001
20
92.319878845214859
30
0
11
177.89000000000001
21
88.509878845214857
31
0
0
LINE
5
165
100
AcDbEntity
8
0
100
AcDbLine
10
163.4899999999995
20
88.509878845214857
30
0
11
163.4899999999995
21
92.319878845214859
31
0
0
LINE
5
166
100
AcDbEntity
8
0
100
AcDbLine
10
193.49000000000001
20
92.319878845214859
30
0
11
207.8899999999993
21
92.319878845214845
31
0
0
LINE
5
167
100
AcDbEntity
8
0
100
AcDbLine
10
163.4899999999995
20
92.319878845214859
30
0
11
177.89000000000001
21
92.319878845214859
31
0
0
LINE
5
168
100
AcDbEntity
8
0
100
AcDbLine
10
207.8899999999993
20
92.319878845214845
30
0
11
207.88999999999916
21
88.509878845215184
31
0
0
LINE
5
169
100
AcDbEntity
8
0
100
AcDbLine
10
193.49000000000001
20
88.509878845214857
30
0
11
193.49000000000001
21
92.319878845214859
31
0
0
LINE
5
170
100
AcDbEntity
8
0
100
AcDbLine
10
223.48999999999833
20
88.509878845214857
30
0
11
213.89000000000004
21
88.509878845214857
31
0
0
LINE
5
171
100
AcDbEntity
8
0
100
AcDbLine
10
223.48999999999853
20
92.319878845214845
30
0
11
223.48999999999833
21
88.509878845214857
31
0
0
LINE
5
172
100
AcDbEntity
8
0
100
AcDbLine
10
213.89000000000004
20
88.509878845214857
30
0
11
207.88999999999916
21
88.509878845215184
31
0
0
LINE
5
173
100
AcDbEntity
8
0
100
AcDbLine
10
229.48999999999998
20
92.319878845214859
30
0
11
223.48999999999853
21
92.319878845214845
31
0
0
LINE
5
174
100
AcDbEntity
8
0
100
AcDbLine
10
26.820000000000014
20
8.8817841970012523e-15
30
0
11
-13.820000000000004
21
-101.59999999999999
31
0
0
LINE
5
175
100
AcDbEntity
8
0
100
AcDbLine
10
-13.820000000000006
20
8.8817841970012523e-15
30
0
11
26.820000000000014
21
-101.59999999999999
31
0
0
CIRCLE
5
176
100
AcDbEntity
8
0
100
AcDbCircle
10
-10.010000000000003
20
-97.789999999999992
30
0
40
1.7000000000000004
210
0
220
0
230
1
0
CIRCLE
5
177
100
AcDbEntity
8
0
100
AcDbCircle
10
-10.010000000000003
20
-3.8100000000000023
30
0
40
1.7000000000000004
210
0
220
0
230
1
0
CIRCLE
5
178
100
AcDbEntity
8
0
100
AcDbCircle
10
23.776717589072952
20
-3.8622752504266189
30
0
40
1.7000000000000004
210
0
220
0
230
1
0
CIRCLE
5
179
100
AcDbEntity
8
0
100
AcDbCircle
10
23.485904120051764
20
-97.841825300031758
30
0
40
1.7000000000000004
210
0
220
0
230
1
0
LINE
5
180
100
AcDbEntity
8
0
100
AcDbLine
10
145
20
-105.05985403910398
30
0
11
135
21
-105.05985403910398
31
0
0
LINE
5
181
100
AcDbEntity
8
0
100
AcDbLine
10
135
20
-105.05985403910398
30
0
11
135
21
3.4598540391040444
31
0
0
LINE
5
182
100
AcDbEntity
8
0
100
AcDbLine
10
135
20
3.4598540391040444
30
0
11
145
21
3.4598540391040444
31
0
0
LINE
5
183
100
AcDbEntity
8
0
100
AcDbLine
10
145
20
3.4598540391040444
30
0
11
145
21
-105.05985403910398
31
0
0
LINE
5
184
100
AcDbEntity
8
0
100
AcDbLine
10
145
20
-105.05985403910398
30
0
11
135
21
3.4598540391040444
31
0
0
LINE
5
185
100
AcDbEntity
8
0
100
AcDbLine
10
135
20
-105.05985403910398
30
0
11
145
21
3.4598540391040444
31
0
0
CIRCLE
5
186
100
AcDbEntity
8
0
100
AcDbCircle
10
160
20
-40.799999999999969
30
0
40
2.5
210
0
220
0
230
1
0
CIRCLE
5
187
100
AcDbEntity
8
0
100
AcDbCircle
10
160
20
-60.799999999999969
30
0
40
3.0000000000000018
210
0
220
0
230
1
0
ENDSEC
0
SECTION
2
OBJECTS
0
DICTIONARY
5
C
100
AcDbDictionary
3
ACAD_GROUP
350
D
3
ACAD_MLINESTYLE
350
17
0
DICTIONARY
5
D
100
AcDbDictionary
0
DICTIONARY
5
1A
330
C
100
AcDbDictionary
0
DICTIONARY
5
17
100
AcDbDictionary
0
ENDSEC
0
EOF
