0
SECTION
2
HEADER
9
$INSUNITS
70
4
0
ENDSEC
0
SECTION
2
TABLES
0
TABLE
2
LTYPE
0
LTYPE
72
65
70
64
2
CONTINUOUS
3
______
73
0
40
0
0
ENDTAB
0
TABLE
2
LAYER
0
ENDTAB
0
ENDSEC
0
SECTION
2
ENTITIES
0
LINE
8
front_outsideCutPath
10
0
20
36
11
0
21
27.06
0
LINE
8
front_outsideCutPath
10
0
20
27.06
11
6
21
27.06
0
LINE
8
front_outsideCutPath
10
6
20
27.06
11
6
21
11.94
0
LINE
8
front_outsideCutPath
10
6
20
11.94
11
0
21
11.94
0
LINE
8
front_outsideCutPath
10
0
20
11.94
11
0
21
3
0
LINE
8
front_outsideCutPath
10
0
20
3
11
16.98
21
3
0
LINE
8
front_outsideCutPath
10
16.98
20
3
11
16.98
21
9
0
LINE
8
front_outsideCutPath
10
16.98
20
9
11
32.1
21
9
0
LINE
8
front_outsideCutPath
10
32.1
20
9
11
32.1
21
3
0
LINE
8
front_outsideCutPath
10
32.1
20
3
11
47.22
21
3
0
LINE
8
front_outsideCutPath
10
47.22
20
3
11
47.22
21
9
0
LINE
8
front_outsideCutPath
10
47.22
20
9
11
62.34
21
9
0
LINE
8
front_outsideCutPath
10
62.34
20
9
11
62.34
21
3
0
LINE
8
front_outsideCutPath
10
62.34
20
3
11
77.46
21
3
0
LINE
8
front_outsideCutPath
10
77.46
20
3
11
77.46
21
9
0
LINE
8
front_outsideCutPath
10
77.46
20
9
11
92.58
21
9
0
LINE
8
front_outsideCutPath
10
92.58
20
9
11
92.58
21
3
0
LINE
8
front_outsideCutPath
10
92.58
20
3
11
107.7
21
3
0
LINE
8
front_outsideCutPath
10
107.7
20
3
11
107.7
21
9
0
LINE
8
front_outsideCutPath
10
107.7
20
9
11
122.82
21
9
0
LINE
8
front_outsideCutPath
10
122.82
20
9
11
122.82
21
3
0
LINE
8
front_outsideCutPath
10
122.82
20
3
11
137.94
21
3
0
LINE
8
front_outsideCutPath
10
137.94
20
3
11
137.94
21
9
0
LINE
8
front_outsideCutPath
10
137.94
20
9
11
153.06
21
9
0
LINE
8
front_outsideCutPath
10
153.06
20
9
11
153.06
21
3
0
LINE
8
front_outsideCutPath
10
153.06
20
3
11
168.18
21
3
0
LINE
8
front_outsideCutPath
10
168.18
20
3
11
168.18
21
9
0
LINE
8
front_outsideCutPath
10
168.18
20
9
11
183.3
21
9
0
LINE
8
front_outsideCutPath
10
183.3
20
9
11
183.3
21
3
0
LINE
8
front_outsideCutPath
10
183.3
20
3
11
198.42
21
3
0
LINE
8
front_outsideCutPath
10
198.42
20
3
11
198.42
21
9
0
LINE
8
front_outsideCutPath
10
198.42
20
9
11
213.54
21
9
0
LINE
8
front_outsideCutPath
10
213.54
20
9
11
213.54
21
3
0
LINE
8
front_outsideCutPath
10
213.54
20
3
11
228.66
21
3
0
LINE
8
front_outsideCutPath
10
228.66
20
3
11
228.66
21
9
0
LINE
8
front_outsideCutPath
10
228.66
20
9
11
243.78
21
9
0
LINE
8
front_outsideCutPath
10
243.78
20
9
11
243.78
21
3
0
LINE
8
front_outsideCutPath
10
243.78
20
3
11
258.9
21
3
0
LINE
8
front_outsideCutPath
10
258.9
20
3
11
258.9
21
9
0
LINE
8
front_outsideCutPath
10
258.9
20
9
11
274.02
21
9
0
LINE
8
front_outsideCutPath
10
274.02
20
9
11
274.02
21
3
0
LINE
8
front_outsideCutPath
10
274.02
20
3
11
291
21
3
0
LINE
8
front_outsideCutPath
10
291
20
3
11
291
21
11.94
0
LINE
8
front_outsideCutPath
10
291
20
11.94
11
285
21
11.94
0
LINE
8
front_outsideCutPath
10
285
20
11.94
11
285
21
27.06
0
LINE
8
front_outsideCutPath
10
285
20
27.06
11
291
21
27.06
0
LINE
8
front_outsideCutPath
10
291
20
27.06
11
291
21
36
0
LINE
8
front_outsideCutPath
10
291
20
36
11
0
21
36
0
LINE
8
front_labelLayer
10
140.0327637
20
20.5393765
11
140.0327637
21
20.1236538
0
LINE
8
front_labelLayer
10
140.0327637
20
20.1236538
11
139.1336426
21
20.1236538
0
LINE
8
front_labelLayer
10
139.1336426
20
20.1236538
11
139.1336426
21
17.0073452
0
LINE
8
front_labelLayer
10
139.1336426
20
17.0073452
11
138.5986816
21
17.0073452
0
LINE
8
front_labelLayer
10
138.5986816
20
17.0073452
11
138.5986816
21
20.1236538
0
LINE
8
front_labelLayer
10
138.5986816
20
20.1236538
11
137.967041
21
20.1236538
0
LINE
8
front_labelLayer
10
137.967041
20
20.1236538
11
137.967041
21
20.3653531
0
LINE
8
front_labelLayer
10
137.967041
20
20.3653531
11
138.5986816
21
20.5587124
0
LINE
8
front_labelLayer
10
138.5986816
20
20.5587124
11
138.5986816
21
20.7552945
0
LINE
8
front_labelLayer
10
140.3937012
20
21.9444546
11
140.2551269
21
21.5158413
0
LINE
8
front_labelLayer
10
139.1336426
20
20.7681851
11
139.1336426
21
20.5393765
0
LINE
8
front_labelLayer
10
139.1336426
20
20.5393765
11
140.0327637
21
20.5393765
0
ARC
8
front_labelLayer
10
140.766683
20
20.7802198
40
2.1681446
50
167.5775706
51
180.6586971
0
ARC
8
front_labelLayer
10
139.7471541
20
21.0179164
40
1.1214253
50
141.7433863
51
168.232226
0
ARC
8
front_labelLayer
10
139.5811531
20
21.1045569
40
0.9380711
50
98.2551339
51
139.6203559
0
ARC
8
front_labelLayer
10
139.7269042
20
20.4312532
40
1.6260215
50
89.6696494
51
99.9314838
0
ARC
8
front_labelLayer
10
139.7273118
20
20.3345675
40
1.7227034
50
81.5641174
51
89.7017455
0
ARC
8
front_labelLayer
10
139.6061891
20
19.4895805
40
2.5763205
50
75.9740686
51
81.6564005
0
ARC
8
front_labelLayer
10
139.3984199
20
18.6277965
40
3.4627742
50
73.2962576
51
76.094659
0
ARC
8
front_labelLayer
10
139.4507056
20
19.0457594
40
2.597768
50
71.9613381
51
76.591809
0
ARC
8
front_labelLayer
10
139.6522487
20
19.9007273
40
1.7193703
50
76.5182861
51
83.0216912
0
ARC
8
front_labelLayer
10
139.7224468
20
20.4652582
40
1.1504931
50
83.0760368
51
89.7926024
0
ARC
8
front_labelLayer
10
139.7201382
20
20.8943225
40
0.7214502
50
89.4859145
51
103.4197939
0
ARC
8
front_labelLayer
10
139.6550945
20
21.1442123
40
0.463318
50
102.7677816
51
144.3380333
0
ARC
8
front_labelLayer
10
139.7861326
20
21.0599012
40
0.6189866
50
145.0688637
51
162.1801299
0
ARC
8
front_labelLayer
10
140.2353979
20
20.9087451
40
1.092974
50
161.8437072
51
171.784777
0
ARC
8
front_labelLayer
10
140.9682411
20
20.7986754
40
1.83403
50
171.6528561
51
178.4382669
0
ARC
8
front_labelLayer
10
141.6590019
20
20.7692127
40
2.5253595
50
178.1971868
51
180.0233146
0
LINE
8
front_labelLayer
10
142.710791
20
20.5651577
11
142.6366699
21
20.0688687
0
LINE
8
front_labelLayer
10
141.2122559
20
18.9022671
11
141.2122559
21
17.0073452
0
LINE
8
front_labelLayer
10
141.2122559
20
17.0073452
11
140.6772949
21
17.0073452
0
LINE
8
front_labelLayer
10
140.6772949
20
17.0073452
11
140.6772949
21
20.5393765
0
LINE
8
front_labelLayer
10
140.6772949
20
20.5393765
11
141.1187988
21
20.5393765
0
LINE
8
front_labelLayer
10
141.1187988
20
20.5393765
11
141.1800293
21
19.8851773
0
LINE
8
front_labelLayer
10
141.1800293
20
19.8851773
11
141.2058105
21
19.8851773
0
ARC
8
front_labelLayer
10
142.294116
20
18.1479594
40
2.4558764
50
84.9922461
51
90.1281519
0
ARC
8
front_labelLayer
10
142.3530914
20
18.8087096
40
1.7925006
50
78.4891576
51
85.026545
0
ARC
8
front_labelLayer
10
142.1241765
20
17.7675504
40
2.3576928
50
77.4453506
51
81.6360466
0
ARC
8
front_labelLayer
10
142.2269015
20
18.4756424
40
1.6421901
50
81.5883481
51
87.1917764
0
ARC
8
front_labelLayer
10
142.2492063
20
18.8624514
40
1.2547573
50
87.3436985
51
89.9659876
0
ARC
8
front_labelLayer
10
142.2440226
20
19.1902984
40
0.9269291
50
89.6335399
51
137.088076
0
ARC
8
front_labelLayer
10
142.4716265
20
18.9343753
40
1.2682933
50
135.6211109
51
138.837518
0
ARC
8
front_labelLayer
10
142.4381741
20
18.9670224
40
1.2216233
50
138.9575841
51
174.5422419
0
ARC
8
front_labelLayer
10
142.8360467
20
18.9047689
40
1.6237927
50
173.6908206
51
180.0882757
0
ARC
8
front_labelLayer
10
142.779778
20
18.9984114
40
1.8065789
50
139.4139262
51
150.6032939
0
ARC
8
front_labelLayer
10
142.4558593
20
19.2759765
40
1.3800045
50
124.2321738
51
139.416126
0
ARC
8
front_labelLayer
10
142.282661
20
19.5374173
40
1.0664291
50
89.6796794
51
124.4405632
0
ARC
8
front_labelLayer
10
143.6568341
20
18.7579557
40
2.7632971
50
349.176191
51
0.3862436
0
ARC
8
front_labelLayer
10
144.5871715
20
18.5724915
40
1.8146982
50
330.2507213
51
349.4116339
0
ARC
8
front_labelLayer
10
144.873482
20
18.4236797
40
1.4923361
50
318.1439801
51
329.7566059
0
ARC
8
front_labelLayer
10
144.925159
20
18.3822661
40
1.4262169
50
278.895919
51
317.9979003
0
ARC
8
front_labelLayer
10
144.7920137
20
19.0201761
40
2.0773037
50
269.7502549
51
279.8033239
0
ARC
8
front_labelLayer
10
144.7704181
20
18.6607522
40
1.7179058
50
253.5436774
51
270.4182676
0
ARC
8
front_labelLayer
10
144.713233
20
18.4395459
40
1.4895819
50
238.8115315
51
253.242822
0
ARC
8
front_labelLayer
10
144.6947786
20
18.402434
40
1.4482813
50
207.7947307
51
238.6757791
0
ARC
8
front_labelLayer
10
144.9596006
20
18.5646276
40
1.7582946
50
205.6561031
51
208.4462182
0
ARC
8
front_labelLayer
10
145.1635888
20
18.6496201
40
1.9790049
50
188.9102557
51
205.3171478
0
ARC
8
front_labelLayer
10
145.8510226
20
18.7660493
40
2.6761898
50
179.7744681
51
189.0932962
0
ARC
8
front_labelLayer
10
145.9524328
20
18.795397
40
2.777643
50
169.2442957
51
180.3880771
0
ARC
8
front_labelLayer
10
145.0091731
20
18.9818443
40
1.8161735
50
150.7111818
51
169.4695114
0
ARC
8
front_labelLayer
10
144.7080555
20
19.136476
40
1.4779541
50
138.175966
51
150.2286783
0
ARC
8
front_labelLayer
10
144.657958
20
19.1749203
40
1.4149933
50
99.1759252
51
137.9832783
0
ARC
8
front_labelLayer
10
144.795822
20
18.5261271
40
2.0777253
50
89.7326307
51
100.076022
0
ARC
8
front_labelLayer
10
144.8233768
20
18.8063138
40
1.7976045
50
73.522292
51
90.5692434
0
ARC
8
front_labelLayer
10
144.9287948
20
19.1893287
40
1.4004392
50
41.1445557
51
73.2133722
0
ARC
8
front_labelLayer
10
144.7275575
20
19.0163684
40
1.665784
50
13.5014387
51
41.07032
0
ARC
8
front_labelLayer
10
143.9500787
20
18.8129132
40
2.4693311
50
1.1277458
51
13.8799916
0
ARC
8
front_labelLayer
10
143.2800947
20
18.7770273
40
3.1399735
50
359.9919021
51
1.5418261
0
ARC
8
front_labelLayer
10
146.438135
20
18.7626811
40
2.7090203
50
179.7059629
51
187.9161128
0
ARC
8
front_labelLayer
10
145.4445593
20
18.6199528
40
1.7052617
50
187.763909
51
200.0976615
0
ARC
8
front_labelLayer
10
144.8971932
20
18.4193976
40
1.1223105
50
200.084578
51
216.9131636
0
ARC
8
front_labelLayer
10
144.697316
20
18.2766758
40
0.8768001
50
217.3009474
51
261.7099065
0
ARC
8
front_labelLayer
10
144.7901052
20
18.7194555
40
1.3286265
50
260.5033202
51
270.2477247
0
ARC
8
front_labelLayer
10
144.8078179
20
18.6333585
40
1.2425748
50
269.4481285
51
284.7255609
0
ARC
8
front_labelLayer
10
144.9061848
20
18.2685469
40
0.864745
50
284.5662298
51
322.633403
0
ARC
8
front_labelLayer
10
144.6761968
20
18.4347031
40
1.1483993
50
323.0089351
51
342.6390679
0
ARC
8
front_labelLayer
10
144.0183933
20
18.6496939
40
1.8404087
50
342.3615357
51
353.7538034
0
ARC
8
front_labelLayer
10
143.0478661
20
18.7666792
40
2.8179229
50
353.5363137
51
0.2013824
0
ARC
8
front_labelLayer
10
143.196599
20
18.7902084
40
2.6692073
50
359.7075352
51
7.8973066
0
ARC
8
front_labelLayer
10
144.1741295
20
18.9303484
40
1.6816988
50
7.7439827
51
20.0690528
0
ARC
8
front_labelLayer
10
144.7188485
20
19.1302409
40
1.1014621
50
20.0257029
51
37.4350096
0
ARC
8
front_labelLayer
10
144.8995874
20
19.2584901
40
0.8800264
50
37.9577463
51
80.4006383
0
ARC
8
front_labelLayer
10
144.7968805
20
18.8002209
40
1.3492349
50
79.3453612
51
90.3174804
0
ARC
8
front_labelLayer
10
144.7778623
20
18.8763461
40
1.2731413
50
89.4805629
51
103.8805125
0
ARC
8
front_labelLayer
10
144.6708858
20
19.283711
40
0.8520307
50
103.4685193
51
142.311897
0
ARC
8
front_labelLayer
10
144.8788573
20
19.1374504
40
1.1060862
50
142.9025678
51
162.3749647
0
ARC
8
front_labelLayer
10
145.5341818
20
18.9190654
40
1.7967989
50
162.0653239
51
173.1674697
0
ARC
8
front_labelLayer
10
146.5559874
20
18.7887411
40
2.826863
50
173.0086292
51
180.2464153
0
LINE
8
front_labelLayer
10
150.3098144
20
17.0073452
11
149.7748535
21
17.0073452
0
LINE
8
front_labelLayer
10
149.7748535
20
17.0073452
11
149.7748535
21
19.2922085
0
LINE
8
front_labelLayer
10
147.8928223
20
18.8603726
11
147.8928223
21
17.0073452
0
LINE
8
front_labelLayer
10
147.8928223
20
17.0073452
11
147.3578613
21
17.0073452
0
LINE
8
front_labelLayer
10
147.3578613
20
17.0073452
11
147.3578613
21
20.5393765
0
LINE
8
front_labelLayer
10
147.3578613
20
20.5393765
11
147.7929199
21
20.5393765
0
LINE
8
front_labelLayer
10
147.7929199
20
20.5393765
11
147.8799316
21
20.0559781
0
LINE
8
front_labelLayer
10
147.8799316
20
20.0559781
11
147.9057129
21
20.0559781
0
LINE
8
front_labelLayer
10
150.3098144
20
19.3115445
11
150.3098144
21
17.0073452
0
ARC
8
front_labelLayer
10
148.2626708
20
19.3008809
40
1.5122076
50
359.6714113
51
8.687679
0
ARC
8
front_labelLayer
10
148.823145
20
19.3897674
40
0.9447432
50
8.4931249
51
22.6580116
0
ARC
8
front_labelLayer
10
149.1079003
20
19.5081041
40
0.6363785
50
22.7023686
51
42.3420089
0
ARC
8
front_labelLayer
10
149.1399038
20
19.5224984
40
0.603127
50
43.3791365
51
71.5385594
0
ARC
8
front_labelLayer
10
149.0202117
20
19.1880447
40
0.9583014
50
71.0828321
51
84.3691094
0
ARC
8
front_labelLayer
10
148.9664852
20
18.731253
40
1.418187
50
84.019759
51
90.1511427
0
ARC
8
front_labelLayer
10
148.9512509
20
18.5304048
40
1.619071
50
89.5932748
51
100.3718179
0
ARC
8
front_labelLayer
10
148.836834
20
19.1307127
40
1.007983
50
100.117692
51
118.1602624
0
ARC
8
front_labelLayer
10
148.7215256
20
19.3568208
40
0.7542375
50
118.5438811
51
139.1926705
0
ARC
8
front_labelLayer
10
148.8220685
20
19.2893551
40
0.874552
50
140.1519111
51
160.3146033
0
ARC
8
front_labelLayer
10
149.4291941
20
19.0619514
40
1.5228273
50
159.9534063
51
171.3800847
0
ARC
8
front_labelLayer
10
150.4209353
20
18.9025312
40
2.5272756
50
171.1765375
51
178.3217575
0
ARC
8
front_labelLayer
10
151.3200008
20
18.8617876
40
3.4271788
50
178.0810921
51
180.0236557
0
ARC
8
front_labelLayer
10
148.8208451
20
19.4763945
40
1.0832286
50
116.9442915
51
147.6525654
0
ARC
8
front_labelLayer
10
148.9335733
20
19.2878505
40
1.3024725
50
115.807034
51
117.6066818
0
ARC
8
front_labelLayer
10
148.9912368
20
19.153413
40
1.4486205
50
94.3226703
51
115.5454438
0
ARC
8
front_labelLayer
10
149.0259072
20
18.852233
40
1.7515971
50
89.957802
51
94.7109781
0
ARC
8
front_labelLayer
10
149.0402404
20
18.4917609
40
2.112109
50
80.5584996
51
90.3538274
0
ARC
8
front_labelLayer
10
149.1722356
20
19.256317
40
1.336266
50
65.1093969
51
80.7638411
0
ARC
8
front_labelLayer
10
149.3265294
20
19.5980724
40
0.9613229
50
46.5584383
51
64.8782286
0
ARC
8
front_labelLayer
10
149.3388797
20
19.6336727
40
0.9271119
50
19.3848814
51
45.5997471
0
ARC
8
front_labelLayer
10
148.8025068
20
19.4324174
40
1.4999235
50
6.9633908
51
19.8363011
0
ARC
8
front_labelLayer
10
147.9752888
20
19.3211951
40
2.3345458
50
359.7631474
51
7.2116158
0
LINE
8
front_labelLayer
10
153.032959
20
17.4488492
11
153.032959
21
17.0395718
0
LINE
8
front_labelLayer
10
151.4474121
20
18.022482
11
151.4474121
21
20.1236538
0
LINE
8
front_labelLayer
10
151.4474121
20
20.1236538
11
150.9414551
21
20.1236538
0
LINE
8
front_labelLayer
10
150.9414551
20
20.1236538
11
150.9414551
21
20.3814663
0
LINE
8
front_labelLayer
10
150.9414551
20
20.3814663
11
151.4474121
21
20.6038296
0
LINE
8
front_labelLayer
10
151.4474121
20
20.6038296
11
151.672998
21
21.3579312
0
LINE
8
front_labelLayer
10
151.672998
20
21.3579312
11
151.982373
21
21.3579312
0
LINE
8
front_labelLayer
10
151.982373
20
21.3579312
11
151.982373
21
20.5393765
0
LINE
8
front_labelLayer
10
151.982373
20
20.5393765
11
153.0071777
21
20.5393765
0
LINE
8
front_labelLayer
10
153.0071777
20
20.5393765
11
153.0071777
21
20.1236538
0
LINE
8
front_labelLayer
10
153.0071777
20
20.1236538
11
151.982373
21
20.1236538
0
LINE
8
front_labelLayer
10
151.982373
20
20.1236538
11
151.982373
21
18.0450406
0
ARC
8
front_labelLayer
10
152.5532305
20
19.1412674
40
1.7568752
50
269.8803126
51
278.3028368
0
ARC
8
front_labelLayer
10
152.5705339
20
19.0008221
40
1.6154063
50
278.4148831
51
279.0088774
0
ARC
8
front_labelLayer
10
152.3727763
20
20.2642314
40
2.8941978
50
278.9590675
51
280.5103648
0
ARC
8
front_labelLayer
10
152.5607545
20
19.2556279
40
1.8682271
50
280.4845579
51
282.6269651
0
ARC
8
front_labelLayer
10
152.7254394
20
18.5239936
40
1.1182878
50
282.5877834
51
285.579438
0
ARC
8
front_labelLayer
10
152.8074745
20
18.222192
40
0.8055449
50
285.7241889
51
286.255164
0
ARC
8
front_labelLayer
10
152.8080562
20
17.5152512
40
0.5261674
50
287.9886221
51
295.3049411
0
ARC
8
front_labelLayer
10
152.6811319
20
17.8992513
40
0.930597
50
283.3069561
51
288.1197571
0
ARC
8
front_labelLayer
10
152.5470742
20
18.4584316
40
1.5056207
50
280.0070158
51
283.3736664
0
ARC
8
front_labelLayer
10
152.4574759
20
18.9446006
40
1.9999661
50
279.1862149
51
280.1145702
0
ARC
8
front_labelLayer
10
152.4022875
20
19.2585509
40
2.3187044
50
275.5261239
51
279.2939608
0
ARC
8
front_labelLayer
10
152.4643413
20
18.6104499
40
1.6676398
50
270.8933662
51
275.5483347
0
ARC
8
front_labelLayer
10
152.4721413
20
18.3141316
40
1.3712395
50
270.0031557
51
270.7605367
0
ARC
8
front_labelLayer
10
152.4506294
20
18.3399634
40
1.397238
50
253.7847785
51
270.8852572
0
ARC
8
front_labelLayer
10
152.2850941
20
17.7754252
40
0.8089334
50
190.3817653
51
253.8772199
0
ARC
8
front_labelLayer
10
153.1288219
20
18.0035549
40
1.6815162
50
179.3550663
51
192.847771
0
ARC
8
front_labelLayer
10
153.0595808
20
18.0383022
40
1.0772288
50
179.6415986
51
189.7505809
0
ARC
8
front_labelLayer
10
152.6792994
20
17.9704741
40
0.6909577
50
189.5479184
51
205.7873815
0
ARC
8
front_labelLayer
10
152.523021
20
17.8984093
40
0.5189011
50
206.1294504
51
221.4083942
0
ARC
8
front_labelLayer
10
152.5054979
20
17.8851133
40
0.4969668
50
221.5949395
51
262.3504734
0
ARC
8
front_labelLayer
10
152.5471718
20
18.0994151
40
0.715023
50
261.3266036
51
270.1914099
0
LINE
8
left_outsideCutPath
10
300
20
36
11
300
21
27.06
0
LINE
8
left_outsideCutPath
10
300
20
27.06
11
294
21
27.06
0
LINE
8
left_outsideCutPath
10
294
20
27.06
11
294
21
11.94
0
LINE
8
left_outsideCutPath
10
294
20
11.94
11
300
21
11.94
0
LINE
8
left_outsideCutPath
10
300
20
11.94
11
300
21
3
0
LINE
8
left_outsideCutPath
10
300
20
3
11
311.58
21
3
0
LINE
8
left_outsideCutPath
10
311.58
20
3
11
311.58
21
9
0
LINE
8
left_outsideCutPath
10
311.58
20
9
11
326.7
21
9
0
LINE
8
left_outsideCutPath
10
326.7
20
9
11
326.7
21
3
0
LINE
8
left_outsideCutPath
10
326.7
20
3
11
341.82
21
3
0
LINE
8
left_outsideCutPath
10
341.82
20
3
11
341.82
21
9
0
LINE
8
left_outsideCutPath
10
341.82
20
9
11
356.94
21
9
0
LINE
8
left_outsideCutPath
10
356.94
20
9
11
356.94
21
3
0
LINE
8
left_outsideCutPath
10
356.94
20
3
11
372.06
21
3
0
LINE
8
left_outsideCutPath
10
372.06
20
3
11
372.06
21
9
0
LINE
8
left_outsideCutPath
10
372.06
20
9
11
387.18
21
9
0
LINE
8
left_outsideCutPath
10
387.18
20
9
11
387.18
21
3
0
LINE
8
left_outsideCutPath
10
387.18
20
3
11
402.3
21
3
0
LINE
8
left_outsideCutPath
10
402.3
20
3
11
402.3
21
9
0
LINE
8
left_outsideCutPath
10
402.3
20
9
11
417.42
21
9
0
LINE
8
left_outsideCutPath
10
417.42
20
9
11
417.42
21
3
0
LINE
8
left_outsideCutPath
10
417.42
20
3
11
429
21
3
0
LINE
8
left_outsideCutPath
10
429
20
3
11
429
21
11.94
0
LINE
8
left_outsideCutPath
10
429
20
11.94
11
435
21
11.94
0
LINE
8
left_outsideCutPath
10
435
20
11.94
11
435
21
27.06
0
LINE
8
left_outsideCutPath
10
435
20
27.06
11
429
21
27.06
0
LINE
8
left_outsideCutPath
10
429
20
27.06
11
429
21
36
0
LINE
8
left_outsideCutPath
10
429
20
36
11
300
21
36
0
LINE
8
left_labelLayer
10
360.4185059
20
22.0217984
11
360.4185059
21
17.0073452
0
LINE
8
left_labelLayer
10
360.4185059
20
17.0073452
11
359.8835449
21
17.0073452
0
LINE
8
left_labelLayer
10
359.8835449
20
17.0073452
11
359.8835449
21
22.0217984
0
LINE
8
left_labelLayer
10
359.8835449
20
22.0217984
11
360.4185059
21
22.0217984
0
LINE
8
left_labelLayer
10
364.3437012
20
19.0150601
11
364.3437012
21
18.6766812
0
LINE
8
left_labelLayer
10
364.3437012
20
18.6766812
11
361.9105957
21
18.6766812
0
LINE
8
left_labelLayer
10
364.1922363
20
17.6486538
11
364.1922363
21
17.1717007
0
LINE
8
left_labelLayer
10
361.9234863
20
19.1117398
11
363.7700684
21
19.1117398
0
ARC
8
left_labelLayer
10
363.0273799
20
19.0216468
40
2.0788291
50
256.0087842
51
270.4848357
0
ARC
8
left_labelLayer
10
362.876001
20
18.4339639
40
1.4719895
50
223.5465948
51
256.195695
0
ARC
8
left_labelLayer
10
362.959509
20
18.4946583
40
1.5743905
50
194.0877257
51
223.0538329
0
ARC
8
left_labelLayer
10
363.7246872
20
18.7039061
40
2.3675465
50
181.3574722
51
194.4919865
0
ARC
8
left_labelLayer
10
364.4118377
20
18.7437551
40
3.055539
50
179.9887138
51
181.7992447
0
ARC
8
left_labelLayer
10
364.1653021
20
18.7632003
40
2.8090665
50
168.9539216
51
180.3843453
0
ARC
8
left_labelLayer
10
363.247878
20
18.9500035
40
1.8728633
50
149.4071219
51
169.1853682
0
ARC
8
left_labelLayer
10
362.9922641
20
19.0850578
40
1.5841559
50
140.1056021
51
148.9067206
0
ARC
8
left_labelLayer
10
362.8352254
20
19.2298404
40
1.3708508
50
92.4762722
51
140.5386357
0
ARC
8
left_labelLayer
10
362.9051993
20
18.712808
40
1.891022
50
89.9637258
51
93.9177338
0
ARC
8
left_labelLayer
10
362.9219001
20
18.9740854
40
1.6298179
50
74.2125831
51
90.5450332
0
ARC
8
left_labelLayer
10
363.0239808
20
19.3501932
40
1.2401314
50
41.2064424
51
74.0232865
0
ARC
8
left_labelLayer
10
362.8306606
20
19.1828875
40
1.4957917
50
11.5994048
51
41.14962
0
ARC
8
left_labelLayer
10
362.1664242
20
19.0296998
40
2.1773263
50
359.6147576
51
12.0336731
0
ARC
8
left_labelLayer
10
364.0573124
20
18.7195771
40
2.1471452
50
181.1447379
51
190.8006969
0
ARC
8
left_labelLayer
10
363.2998257
20
18.5701812
40
1.3750901
50
190.6006359
51
206.0274857
0
ARC
8
left_labelLayer
10
362.9646816
20
18.4117412
40
1.0044222
50
206.2950437
51
222.5557701
0
ARC
8
left_labelLayer
10
362.9349837
20
18.3961924
40
0.9720687
50
223.0645244
51
258.1401154
0
ARC
8
left_labelLayer
10
363.0532027
20
18.882972
40
1.4728366
50
257.5311791
51
270.4319654
0
ARC
8
left_labelLayer
10
363.0545236
20
20.2355799
40
2.8254196
50
270.1983873
51
292.20906
0
ARC
8
left_labelLayer
10
362.9183881
20
20.6263482
40
3.2387271
50
291.825703
51
293.1610864
0
ARC
8
left_labelLayer
10
362.9123515
20
20.1171723
40
3.2115273
50
287.9023009
51
293.4862126
0
ARC
8
left_labelLayer
10
363.1453186
20
19.3983858
40
2.4559301
50
281.993534
51
287.8851307
0
ARC
8
left_labelLayer
10
363.2017813
20
19.1954285
40
2.2457082
50
275.9053888
51
281.6604433
0
ARC
8
left_labelLayer
10
363.0887505
20
20.2503945
40
3.3067072
50
271.9119322
51
275.9727853
0
ARC
8
left_labelLayer
10
363.0474925
20
21.3009267
40
4.3580354
50
269.966845
51
271.993257
0
ARC
8
left_labelLayer
10
362.8896862
20
19.1013968
40
1.0545335
50
89.4422656
51
106.2089775
0
ARC
8
left_labelLayer
10
362.8262429
20
19.3327178
40
0.8147063
50
106.465666
51
137.9176823
0
ARC
8
left_labelLayer
10
363.0081333
20
19.1729871
40
1.0567585
50
138.0994845
51
160.5866525
0
ARC
8
left_labelLayer
10
363.4756896
20
19.0009815
40
1.5549185
50
160.3353649
51
172.5314703
0
ARC
8
left_labelLayer
10
363.9360947
20
18.9272133
40
2.0210499
50
172.154472
51
174.7614701
0
ARC
8
left_labelLayer
10
361.9471498
20
19.1220967
40
1.822948
50
359.6744787
51
8.9224584
0
ARC
8
left_labelLayer
10
362.598528
20
19.2282291
40
1.1629973
50
8.7342171
51
23.277221
0
ARC
8
left_labelLayer
10
362.9077659
20
19.35804
40
0.8276369
50
23.4821339
51
39.7072629
0
ARC
8
left_labelLayer
10
362.9837228
20
19.4148818
40
0.7329034
50
40.0822647
51
80.624341
0
ARC
8
left_labelLayer
10
362.9055363
20
19.0564845
40
1.0994101
50
79.6467851
51
90.291068
0
LINE
8
left_labelLayer
10
366.8477051
20
20.5393765
11
366.8477051
21
20.1236538
0
LINE
8
left_labelLayer
10
366.8477051
20
20.1236538
11
365.948584
21
20.1236538
0
LINE
8
left_labelLayer
10
365.948584
20
20.1236538
11
365.948584
21
17.0073452
0
LINE
8
left_labelLayer
10
365.948584
20
17.0073452
11
365.413623
21
17.0073452
0
LINE
8
left_labelLayer
10
365.413623
20
17.0073452
11
365.413623
21
20.1236538
0
LINE
8
left_labelLayer
10
365.413623
20
20.1236538
11
364.7819824
21
20.1236538
0
LINE
8
left_labelLayer
10
364.7819824
20
20.1236538
11
364.7819824
21
20.3653531
0
LINE
8
left_labelLayer
10
364.7819824
20
20.3653531
11
365.413623
21
20.5587124
0
LINE
8
left_labelLayer
10
365.413623
20
20.5587124
11
365.413623
21
20.7552945
0
LINE
8
left_labelLayer
10
367.2086426
20
21.9444546
11
367.0700684
21
21.5158413
0
LINE
8
left_labelLayer
10
365.948584
20
20.7681851
11
365.948584
21
20.5393765
0
LINE
8
left_labelLayer
10
365.948584
20
20.5393765
11
366.8477051
21
20.5393765
0
ARC
8
left_labelLayer
10
367.5816244
20
20.7802198
40
2.1681446
50
167.5775706
51
180.6586971
0
ARC
8
left_labelLayer
10
366.5620955
20
21.0179164
40
1.1214253
50
141.7433863
51
168.232226
0
ARC
8
left_labelLayer
10
366.3960945
20
21.1045569
40
0.9380711
50
98.2551339
51
139.6203559
0
ARC
8
left_labelLayer
10
366.5418456
20
20.4312532
40
1.6260215
50
89.6696494
51
99.9314838
0
ARC
8
left_labelLayer
10
366.5422532
20
20.3345675
40
1.7227034
50
81.5641174
51
89.7017455
0
ARC
8
left_labelLayer
10
366.4211305
20
19.4895805
40
2.5763205
50
75.9740686
51
81.6564005
0
ARC
8
left_labelLayer
10
366.2133613
20
18.6277965
40
3.4627742
50
73.2962576
51
76.094659
0
ARC
8
left_labelLayer
10
366.265647
20
19.0457594
40
2.597768
50
71.9613381
51
76.591809
0
ARC
8
left_labelLayer
10
366.4671901
20
19.9007273
40
1.7193703
50
76.5182861
51
83.0216912
0
ARC
8
left_labelLayer
10
366.5373882
20
20.4652582
40
1.1504931
50
83.0760368
51
89.7926024
0
ARC
8
left_labelLayer
10
366.5350796
20
20.8943225
40
0.7214502
50
89.4859145
51
103.4197939
0
ARC
8
left_labelLayer
10
366.4700359
20
21.1442123
40
0.463318
50
102.7677816
51
144.3380333
0
ARC
8
left_labelLayer
10
366.601074
20
21.0599012
40
0.6189866
50
145.0688637
51
162.1801299
0
ARC
8
left_labelLayer
10
367.0503393
20
20.9087451
40
1.092974
50
161.8437072
51
171.784777
0
ARC
8
left_labelLayer
10
367.7831825
20
20.7986754
40
1.83403
50
171.6528561
51
178.4382669
0
ARC
8
left_labelLayer
10
368.4739433
20
20.7692127
40
2.5253595
50
178.1971868
51
180.0233146
0
LINE
8
left_labelLayer
10
369.1164551
20
17.4488492
11
369.1164551
21
17.0395718
0
LINE
8
left_labelLayer
10
367.5309082
20
18.022482
11
367.5309082
21
20.1236538
0
LINE
8
left_labelLayer
10
367.5309082
20
20.1236538
11
367.0249512
21
20.1236538
0
LINE
8
left_labelLayer
10
367.0249512
20
20.1236538
11
367.0249512
21
20.3814663
0
LINE
8
left_labelLayer
10
367.0249512
20
20.3814663
11
367.5309082
21
20.6038296
0
LINE
8
left_labelLayer
10
367.5309082
20
20.6038296
11
367.7564941
21
21.3579312
0
LINE
8
left_labelLayer
10
367.7564941
20
21.3579312
11
368.0658691
21
21.3579312
0
LINE
8
left_labelLayer
10
368.0658691
20
21.3579312
11
368.0658691
21
20.5393765
0
LINE
8
left_labelLayer
10
368.0658691
20
20.5393765
11
369.0906738
21
20.5393765
0
LINE
8
left_labelLayer
10
369.0906738
20
20.5393765
11
369.0906738
21
20.1236538
0
LINE
8
left_labelLayer
10
369.0906738
20
20.1236538
11
368.0658691
21
20.1236538
0
LINE
8
left_labelLayer
10
368.0658691
20
20.1236538
11
368.0658691
21
18.0450406
0
ARC
8
left_labelLayer
10
368.6367266
20
19.1412674
40
1.7568752
50
269.8803126
51
278.3028368
0
ARC
8
left_labelLayer
10
368.65403
20
19.0008221
40
1.6154063
50
278.4148831
51
279.0088774
0
ARC
8
left_labelLayer
10
368.4562724
20
20.2642314
40
2.8941978
50
278.9590675
51
280.5103648
0
ARC
8
left_labelLayer
10
368.6442506
20
19.2556279
40
1.8682271
50
280.4845579
51
282.6269651
0
ARC
8
left_labelLayer
10
368.8089355
20
18.5239936
40
1.1182878
50
282.5877834
51
285.579438
0
ARC
8
left_labelLayer
10
368.8909706
20
18.222192
40
0.8055449
50
285.7241889
51
286.255164
0
ARC
8
left_labelLayer
10
368.8915523
20
17.5152512
40
0.5261674
50
287.9886221
51
295.3049411
0
ARC
8
left_labelLayer
10
368.764628
20
17.8992513
40
0.930597
50
283.3069561
51
288.1197571
0
ARC
8
left_labelLayer
10
368.6305703
20
18.4584316
40
1.5056207
50
280.0070158
51
283.3736664
0
ARC
8
left_labelLayer
10
368.540972
20
18.9446006
40
1.9999661
50
279.1862149
51
280.1145702
0
ARC
8
left_labelLayer
10
368.4857836
20
19.2585509
40
2.3187044
50
275.5261239
51
279.2939608
0
ARC
8
left_labelLayer
10
368.5478374
20
18.6104499
40
1.6676398
50
270.8933662
51
275.5483347
0
ARC
8
left_labelLayer
10
368.5556374
20
18.3141316
40
1.3712395
50
270.0031557
51
270.7605367
0
ARC
8
left_labelLayer
10
368.5341255
20
18.3399634
40
1.397238
50
253.7847785
51
270.8852572
0
ARC
8
left_labelLayer
10
368.3685902
20
17.7754252
40
0.8089334
50
190.3817653
51
253.8772199
0
ARC
8
left_labelLayer
10
369.212318
20
18.0035549
40
1.6815162
50
179.3550663
51
192.847771
0
ARC
8
left_labelLayer
10
369.1430769
20
18.0383022
40
1.0772288
50
179.6415986
51
189.7505809
0
ARC
8
left_labelLayer
10
368.7627955
20
17.9704741
40
0.6909577
50
189.5479184
51
205.7873815
0
ARC
8
left_labelLayer
10
368.6065171
20
17.8984093
40
0.5189011
50
206.1294504
51
221.4083942
0
ARC
8
left_labelLayer
10
368.588994
20
17.8851133
40
0.4969668
50
221.5949395
51
262.3504734
0
ARC
8
left_labelLayer
10
368.6306679
20
18.0994151
40
0.715023
50
261.3266036
51
270.1914099
0
LINE
8
back_outsideCutPath
10
0
20
72
11
0
21
63.06
0
LINE
8
back_outsideCutPath
10
0
20
63.06
11
6
21
63.06
0
LINE
8
back_outsideCutPath
10
6
20
63.06
11
6
21
47.94
0
LINE
8
back_outsideCutPath
10
6
20
47.94
11
0
21
47.94
0
LINE
8
back_outsideCutPath
10
0
20
47.94
11
0
21
39
0
LINE
8
back_outsideCutPath
10
0
20
39
11
16.98
21
39
0
LINE
8
back_outsideCutPath
10
16.98
20
39
11
16.98
21
45
0
LINE
8
back_outsideCutPath
10
16.98
20
45
11
32.1
21
45
0
LINE
8
back_outsideCutPath
10
32.1
20
45
11
32.1
21
39
0
LINE
8
back_outsideCutPath
10
32.1
20
39
11
47.22
21
39
0
LINE
8
back_outsideCutPath
10
47.22
20
39
11
47.22
21
45
0
LINE
8
back_outsideCutPath
10
47.22
20
45
11
62.34
21
45
0
LINE
8
back_outsideCutPath
10
62.34
20
45
11
62.34
21
39
0
LINE
8
back_outsideCutPath
10
62.34
20
39
11
77.46
21
39
0
LINE
8
back_outsideCutPath
10
77.46
20
39
11
77.46
21
45
0
LINE
8
back_outsideCutPath
10
77.46
20
45
11
92.58
21
45
0
LINE
8
back_outsideCutPath
10
92.58
20
45
11
92.58
21
39
0
LINE
8
back_outsideCutPath
10
92.58
20
39
11
107.7
21
39
0
LINE
8
back_outsideCutPath
10
107.7
20
39
11
107.7
21
45
0
LINE
8
back_outsideCutPath
10
107.7
20
45
11
122.82
21
45
0
LINE
8
back_outsideCutPath
10
122.82
20
45
11
122.82
21
39
0
LINE
8
back_outsideCutPath
10
122.82
20
39
11
137.94
21
39
0
LINE
8
back_outsideCutPath
10
137.94
20
39
11
137.94
21
45
0
LINE
8
back_outsideCutPath
10
137.94
20
45
11
153.06
21
45
0
LINE
8
back_outsideCutPath
10
153.06
20
45
11
153.06
21
39
0
LINE
8
back_outsideCutPath
10
153.06
20
39
11
168.18
21
39
0
LINE
8
back_outsideCutPath
10
168.18
20
39
11
168.18
21
45
0
LINE
8
back_outsideCutPath
10
168.18
20
45
11
183.3
21
45
0
LINE
8
back_outsideCutPath
10
183.3
20
45
11
183.3
21
39
0
LINE
8
back_outsideCutPath
10
183.3
20
39
11
198.42
21
39
0
LINE
8
back_outsideCutPath
10
198.42
20
39
11
198.42
21
45
0
LINE
8
back_outsideCutPath
10
198.42
20
45
11
213.54
21
45
0
LINE
8
back_outsideCutPath
10
213.54
20
45
11
213.54
21
39
0
LINE
8
back_outsideCutPath
10
213.54
20
39
11
228.66
21
39
0
LINE
8
back_outsideCutPath
10
228.66
20
39
11
228.66
21
45
0
LINE
8
back_outsideCutPath
10
228.66
20
45
11
243.78
21
45
0
LINE
8
back_outsideCutPath
10
243.78
20
45
11
243.78
21
39
0
LINE
8
back_outsideCutPath
10
243.78
20
39
11
258.9
21
39
0
LINE
8
back_outsideCutPath
10
258.9
20
39
11
258.9
21
45
0
LINE
8
back_outsideCutPath
10
258.9
20
45
11
274.02
21
45
0
LINE
8
back_outsideCutPath
10
274.02
20
45
11
274.02
21
39
0
LINE
8
back_outsideCutPath
10
274.02
20
39
11
291
21
39
0
LINE
8
back_outsideCutPath
10
291
20
39
11
291
21
47.94
0
LINE
8
back_outsideCutPath
10
291
20
47.94
11
285
21
47.94
0
LINE
8
back_outsideCutPath
10
285
20
47.94
11
285
21
63.06
0
LINE
8
back_outsideCutPath
10
285
20
63.06
11
291
21
63.06
0
LINE
8
back_outsideCutPath
10
291
20
63.06
11
291
21
72
0
LINE
8
back_outsideCutPath
10
291
20
72
11
0
21
72
0
LINE
8
back_labelLayer
10
139.1932617
20
53.4794309
11
139.1545898
21
53.4794309
0
LINE
8
back_labelLayer
10
139.1545898
20
53.4794309
11
139.0417969
21
53.0250364
0
LINE
8
back_labelLayer
10
139.0417969
20
53.0250364
11
138.6583008
21
53.0250364
0
LINE
8
back_labelLayer
10
138.6583008
20
53.0250364
11
138.6583008
21
58.0394895
0
LINE
8
back_labelLayer
10
138.6583008
20
58.0394895
11
139.1932617
21
58.0394895
0
LINE
8
back_labelLayer
10
139.1932617
20
58.0394895
11
139.1932617
21
56.8213255
0
LINE
8
back_labelLayer
10
139.1674805
20
56.0865598
11
139.1932617
21
56.0865598
0
ARC
8
back_labelLayer
10
140.3179042
20
54.9801339
40
1.6350203
50
74.2392967
51
90.562403
0
ARC
8
back_labelLayer
10
140.4260184
20
55.3767488
40
1.223956
50
38.563097
51
74.0670721
0
ARC
8
back_labelLayer
10
140.1477918
20
55.1604105
40
1.5763734
50
16.4709415
51
38.4075297
0
ARC
8
back_labelLayer
10
139.346262
20
54.9090762
40
2.4163111
50
5.1338441
51
16.7973039
0
ARC
8
back_labelLayer
10
138.3344566
20
54.8015923
40
3.4337152
50
359.8778965
51
5.4093972
0
ARC
8
back_labelLayer
10
138.6316007
20
54.7757706
40
3.1366179
50
350.6563142
51
0.3380116
0
ARC
8
back_labelLayer
10
139.7250964
20
54.5897797
40
2.0274426
50
335.8305663
51
350.8255175
0
ARC
8
back_labelLayer
10
140.2060853
20
54.3821773
40
1.5036366
50
321.3161497
51
335.5436112
0
ARC
8
back_labelLayer
10
140.3899744
20
54.2323364
40
1.2664393
50
274.064023
51
321.4080796
0
ARC
8
back_labelLayer
10
140.3043074
20
54.7749663
40
1.8143848
50
269.9225724
51
275.54822
0
ARC
8
back_labelLayer
10
140.2928348
20
54.583216
40
1.6226578
50
255.7755609
51
270.3185194
0
ARC
8
back_labelLayer
10
140.246529
20
54.3774787
40
1.4118614
50
245.9801397
51
255.5455489
0
ARC
8
back_labelLayer
10
140.1568382
20
54.1689034
40
1.1848426
50
215.5850347
51
245.8361643
0
ARC
8
back_labelLayer
10
128.0397875
20
56.8118964
40
11.1534782
50
358.1123138
51
0.0484376
0
ARC
8
back_labelLayer
10
131.1439255
20
56.7076769
40
8.047592
50
355.7238957
51
358.1259226
0
ARC
8
back_labelLayer
10
132.5123736
20
56.6136853
40
6.6759499
50
355.4712761
51
355.652615
0
ARC
8
back_labelLayer
10
140.1909407
20
55.3908513
40
1.2162951
50
95.1835198
51
145.1108936
0
ARC
8
back_labelLayer
10
140.2978482
20
54.7879883
40
1.8270916
50
89.8743361
51
96.8145323
0
ARC
8
back_labelLayer
10
140.213312
20
54.6638833
40
1.5032846
50
89.5731341
51
100.732429
0
ARC
8
back_labelLayer
10
140.1020278
20
55.226131
40
0.93016
50
100.4469666
51
119.6700477
0
ARC
8
back_labelLayer
10
139.9988318
20
55.4190689
40
0.7114596
50
120.140293
51
142.4249254
0
ARC
8
back_labelLayer
10
140.1695611
20
55.306126
40
0.9157609
50
143.3382689
51
161.2559944
0
ARC
8
back_labelLayer
10
140.8835043
20
55.0526522
40
1.6733243
50
160.8926394
51
171.2334621
0
ARC
8
back_labelLayer
10
142.0753351
20
54.8603793
40
2.880548
50
171.0667513
51
177.8457279
0
ARC
8
back_labelLayer
10
143.3148696
20
54.7973391
40
4.1216088
50
177.6177293
51
180.0425996
0
ARC
8
back_labelLayer
10
142.7303251
20
54.7804611
40
3.5370904
50
179.776239
51
185.7075435
0
ARC
8
back_labelLayer
10
141.3358024
20
54.6367756
40
2.1351956
50
185.5925119
51
194.2050594
0
ARC
8
back_labelLayer
10
140.4424594
20
54.4049232
40
1.2122856
50
193.9430746
51
208.0217889
0
ARC
8
back_labelLayer
10
140.0810013
20
54.2210399
40
0.8068466
50
208.5536199
51
217.5605395
0
ARC
8
back_labelLayer
10
140.0515554
20
54.208793
40
0.7760825
50
218.1690303
51
253.8047374
0
ARC
8
back_labelLayer
10
140.1955044
20
54.6526045
40
1.2425153
50
253.1382783
51
266.8483123
0
ARC
8
back_labelLayer
10
140.2358697
20
55.1286177
40
1.7200859
50
266.3775329
51
270.0510524
0
ARC
8
back_labelLayer
10
140.2488146
20
54.4749053
40
1.0664338
50
269.3868493
51
285.8631107
0
ARC
8
back_labelLayer
10
140.3280432
20
54.1885644
40
0.7693439
50
286.0162989
51
326.8497093
0
ARC
8
back_labelLayer
10
139.9456388
20
54.4418921
40
1.2280404
50
326.7105372
51
343.6662012
0
ARC
8
back_labelLayer
10
139.2298016
20
54.6606293
40
1.9765211
50
343.4171348
51
353.6369071
0
ARC
8
back_labelLayer
10
138.1485829
20
54.788921
40
3.0653069
50
353.4935196
51
0.2205442
0
ARC
8
back_labelLayer
10
138.0532976
20
54.8135149
40
3.1605954
50
359.7680506
51
6.3094948
0
ARC
8
back_labelLayer
10
139.2438107
20
54.9501303
40
1.9622858
50
6.1649135
51
16.0395953
0
ARC
8
back_labelLayer
10
140.010753
20
55.176147
40
1.1627631
50
15.7779066
51
32.0151245
0
ARC
8
back_labelLayer
10
140.2497781
20
55.3130189
40
0.8875941
50
32.7034415
51
35.5237956
0
ARC
8
back_labelLayer
10
140.3373727
20
55.3752694
40
0.7801328
50
35.5408306
51
79.8011398
0
ARC
8
back_labelLayer
10
140.2326096
20
54.9299001
40
1.2372525
50
78.6781493
51
90.3750044
0
LINE
8
back_labelLayer
10
145.2711914
20
53.0250364
11
144.8748047
21
53.0250364
0
LINE
8
back_labelLayer
10
144.8748047
20
53.0250364
11
144.768457
21
53.5277708
0
LINE
8
back_labelLayer
10
144.768457
20
53.5277708
11
144.7426758
21
53.5277708
0
LINE
8
back_labelLayer
10
144.149707
20
55.1229856
11
144.7491211
21
55.1423216
0
LINE
8
back_labelLayer
10
144.7491211
20
55.1423216
11
144.7491211
21
55.3614622
0
LINE
8
back_labelLayer
10
142.9992187
20
55.9028684
11
142.8348633
21
56.3121458
0
LINE
8
back_labelLayer
10
145.2711914
20
55.4355833
11
145.2711914
21
53.0250364
0
LINE
8
back_labelLayer
10
144.7362305
20
54.4430052
11
144.7362305
21
54.7620481
0
LINE
8
back_labelLayer
10
144.7362305
20
54.7620481
11
144.2012695
21
54.7394895
0
ARC
8
back_labelLayer
10
143.0021382
20
54.9020087
40
2.2176566
50
314.7444729
51
321.7072163
0
ARC
8
back_labelLayer
10
143.5469626
20
54.3484246
40
1.4409472
50
304.848603
51
314.8530258
0
ARC
8
back_labelLayer
10
143.8087085
20
53.975859
40
0.9856334
50
294.393197
51
304.737114
0
ARC
8
back_labelLayer
10
143.7192886
20
54.2075485
40
1.2336532
50
281.2979049
51
293.7313886
0
ARC
8
back_labelLayer
10
143.6010789
20
54.7804538
40
1.8186189
50
272.9334911
51
281.4138743
0
ARC
8
back_labelLayer
10
143.5619009
20
55.367894
40
2.4073115
50
269.9538283
51
273.1492072
0
ARC
8
back_labelLayer
10
143.5483627
20
54.6022621
40
1.6417198
50
258.6719849
51
270.4047801
0
ARC
8
back_labelLayer
10
143.434329
20
54.0567656
40
1.084461
50
238.3273514
51
258.9183331
0
ARC
8
back_labelLayer
10
143.3557511
20
53.9134043
40
0.9212315
50
227.7690323
51
237.8049422
0
ARC
8
back_labelLayer
10
143.3311611
20
53.879078
40
0.8793008
50
192.0827443
51
227.4520931
0
ARC
8
back_labelLayer
10
143.7844896
20
53.9908283
40
1.3460553
50
179.5456948
51
192.6949377
0
ARC
8
back_labelLayer
10
143.363352
20
54.0395669
40
0.9256584
50
115.4904603
51
182.356827
0
ARC
8
back_labelLayer
10
143.8269311
20
53.1892689
40
1.8934205
50
101.3568081
51
117.0798815
0
ARC
8
back_labelLayer
10
144.1992285
20
51.4494945
40
3.6725105
50
92.4696156
51
101.706503
0
ARC
8
back_labelLayer
10
144.3062576
20
49.8990886
40
5.2262423
50
91.7165348
51
92.9094952
0
ARC
8
back_labelLayer
10
143.2126056
20
55.3696862
40
1.5365375
50
359.6933325
51
8.0035696
0
ARC
8
back_labelLayer
10
143.7938468
20
55.454361
40
0.9491727
50
7.8272458
51
20.6041316
0
ARC
8
back_labelLayer
10
144.1227612
20
55.5801859
40
0.5970221
50
20.4094681
51
41.447929
0
ARC
8
back_labelLayer
10
144.1713604
20
55.6069002
40
0.5430468
50
42.7295216
51
71.0380163
0
ARC
8
back_labelLayer
10
144.0569453
20
55.2958051
40
0.8744671
50
70.571576
51
83.9928099
0
ARC
8
back_labelLayer
10
144.0022847
20
54.8517744
40
1.3218033
50
83.6507521
51
90.1752304
0
ARC
8
back_labelLayer
10
144.0118737
20
54.4319137
40
1.7417113
50
90.4484304
51
103.7665575
0
ARC
8
back_labelLayer
10
144.2166964
20
53.5681731
40
2.6293886
50
103.6226837
51
112.4319791
0
ARC
8
back_labelLayer
10
144.5677418
20
52.6818031
40
3.5826704
50
112.2121821
51
115.9641302
0
ARC
8
back_labelLayer
10
144.0055432
20
54.1411346
40
2.4665322
50
106.3568509
51
118.3349914
0
ARC
8
back_labelLayer
10
144.110629
20
53.8165004
40
2.8076371
50
104.5161887
51
106.5488712
0
ARC
8
back_labelLayer
10
144.033558
20
54.1376108
40
2.4774666
50
90.0714453
51
104.6521013
0
ARC
8
back_labelLayer
10
144.0432808
20
54.3557318
40
2.25938
50
81.5679729
51
90.3249044
0
ARC
8
back_labelLayer
10
144.1739151
20
55.2067762
40
1.3983863
50
68.2273406
51
81.7494208
0
ARC
8
back_labelLayer
10
144.3558651
20
55.659485
40
0.9104833
50
47.8683539
51
68.2933704
0
ARC
8
back_labelLayer
10
144.3853973
20
55.7184518
40
0.8471259
50
19.2331177
51
46.6741076
0
ARC
8
back_labelLayer
10
143.8934499
20
55.5354475
40
1.3719418
50
6.3379501
51
19.6815068
0
ARC
8
back_labelLayer
10
143.1662671
20
55.4428341
40
2.1049367
50
359.8026337
51
6.658374
0
ARC
8
back_labelLayer
10
143.6771269
20
54.8749394
40
1.472892
50
269.5791626
51
282.0414113
0
ARC
8
back_labelLayer
10
143.7845641
20
54.3984002
40
0.9844409
50
281.7120858
51
306.4594038
0
ARC
8
back_labelLayer
10
143.832208
20
54.3200508
40
0.8931516
50
306.9880378
51
313.855902
0
ARC
8
back_labelLayer
10
143.8265365
20
54.3184315
40
0.8959285
50
314.1891884
51
347.4270004
0
ARC
8
back_labelLayer
10
143.3777376
20
54.4308986
40
1.3585009
50
346.9177607
51
0.2824162
0
ARC
8
back_labelLayer
10
142.9959321
20
54.4430662
40
1.7402984
50
359.8198645
51
359.9979905
0
ARC
8
back_labelLayer
10
144.328515
20
50.8136335
40
3.9279177
50
91.8564304
51
96.4478886
0
ARC
8
back_labelLayer
10
144.1513824
20
52.346387
40
2.384971
50
96.3545635
51
102.9952981
0
ARC
8
back_labelLayer
10
143.910919
20
53.3680445
40
1.3354142
50
102.7994985
51
113.2433644
0
ARC
8
back_labelLayer
10
143.7126814
20
53.8421436
40
0.8215773
50
113.5885218
51
121.6807044
0
ARC
8
back_labelLayer
10
143.5749752
20
54.0518597
40
0.5708338
50
120.9734047
51
172.4179769
0
ARC
8
back_labelLayer
10
143.8441801
20
53.9980901
40
0.8449667
50
171.2123171
51
180.205743
0
ARC
8
back_labelLayer
10
143.7637088
20
53.9887382
40
0.7645162
50
179.5265225
51
192.7787372
0
ARC
8
back_labelLayer
10
143.5050903
20
53.926048
40
0.4984524
50
192.326463
51
222.0579523
0
ARC
8
back_labelLayer
10
143.4858556
20
53.9145459
40
0.476486
50
222.5804363
51
229.2545665
0
ARC
8
back_labelLayer
10
143.5508584
20
53.9982363
40
0.5823433
50
229.783655
51
254.2723776
0
ARC
8
back_labelLayer
10
143.6374373
20
54.2867548
40
0.8835432
50
253.939684
51
266.4533397
0
ARC
8
back_labelLayer
10
143.6650693
20
54.6052123
40
1.2031258
50
266.0781244
51
270.0590179
0
LINE
8
back_labelLayer
10
148.7291016
20
56.4378294
11
148.5647461
21
55.9834348
0
LINE
8
back_labelLayer
10
148.6775391
20
53.6180052
11
148.6775391
21
53.1442747
0
ARC
8
back_labelLayer
10
147.7677994
20
54.9598714
40
1.999361
50
256.4243793
51
270.4890061
0
ARC
8
back_labelLayer
10
147.6080317
20
54.3363125
40
1.355751
50
221.7976222
51
256.8020647
0
ARC
8
back_labelLayer
10
147.7627501
20
54.4506281
40
1.5473891
50
196.0166733
51
221.1349178
0
ARC
8
back_labelLayer
10
148.5403356
20
54.6882989
40
2.3604082
50
183.5913493
51
196.3539723
0
ARC
8
back_labelLayer
10
149.4113514
20
54.7650385
40
3.2345954
50
179.9388017
51
183.9815553
0
ARC
8
back_labelLayer
10
149.1284002
20
54.7874985
40
2.9517036
50
169.8978573
51
180.3689112
0
ARC
8
back_labelLayer
10
148.1008389
20
54.9775819
40
1.906744
50
153.0874741
51
170.1051546
0
ARC
8
back_labelLayer
10
147.7109693
20
55.1638736
40
1.4748131
50
138.6550119
51
152.6853569
0
ARC
8
back_labelLayer
10
147.6382015
20
55.2169028
40
1.3851769
50
101.4912725
51
138.3134175
0
ARC
8
back_labelLayer
10
147.8052568
20
54.5216381
40
2.0999367
50
89.5892097
51
102.1787773
0
ARC
8
back_labelLayer
10
147.818103
20
54.2073982
40
2.4141236
50
77.7702512
51
89.94756
0
ARC
8
back_labelLayer
10
147.7724208
20
53.955362
40
2.6701312
50
74.679662
51
77.9578787
0
ARC
8
back_labelLayer
10
148.0192105
20
54.8494383
40
1.7426223
50
70.0946729
51
74.7385484
0
ARC
8
back_labelLayer
10
148.254009
20
55.492911
40
1.0576532
50
63.503413
51
70.1862017
0
ARC
8
back_labelLayer
10
148.3700092
20
55.7353746
40
0.7889168
50
62.9240469
51
63.1869
0
ARC
8
back_labelLayer
10
147.6859381
20
53.771778
40
2.3798591
50
68.3294641
51
74.8831109
0
ARC
8
back_labelLayer
10
147.560397
20
53.3266299
40
2.8423476
50
74.780163
51
77.4497456
0
ARC
8
back_labelLayer
10
147.6922168
20
53.9453708
40
2.2097547
50
77.2998827
51
81.7345947
0
ARC
8
back_labelLayer
10
147.7883542
20
54.6152787
40
1.5329851
50
81.6910036
51
87.5079653
0
ARC
8
back_labelLayer
10
147.8069012
20
54.9618009
40
1.1859894
50
87.675242
51
89.9748447
0
ARC
8
back_labelLayer
10
147.7809027
20
54.9614639
40
1.1866227
50
88.7194206
51
112.5667674
0
ARC
8
back_labelLayer
10
147.6965847
20
55.2402405
40
0.8973062
50
114.4265738
51
161.6632891
0
ARC
8
back_labelLayer
10
148.5341959
20
54.9123902
40
1.7961622
50
160.1418377
51
175.1368068
0
ARC
8
back_labelLayer
10
149.6870822
20
54.782931
40
2.9560384
50
174.5309892
51
180.15491
0
ARC
8
back_labelLayer
10
149.3218064
20
54.761559
40
2.5907863
50
179.7041033
51
188.0743719
0
ARC
8
back_labelLayer
10
148.3886365
20
54.6250255
40
1.6476951
50
187.9315072
51
200.3885775
0
ARC
8
back_labelLayer
10
147.8840742
20
54.4381106
40
1.1096247
50
200.4183763
51
216.639213
0
ARC
8
back_labelLayer
10
147.6725387
20
54.2868903
40
0.8496563
50
216.9695309
51
261.3102971
0
ARC
8
back_labelLayer
10
147.7658901
20
54.7221142
40
1.2942599
50
260.1359846
51
270.2692704
0
ARC
8
back_labelLayer
10
147.7615814
20
55.6672582
40
2.2394138
50
270.2658617
51
286.2891406
0
ARC
8
back_labelLayer
10
147.625458
20
56.1749205
40
2.7649033
50
286.0460169
51
292.3654493
0
ARC
8
back_labelLayer
10
147.9880023
20
54.5007576
40
1.521679
50
282.0344078
51
296.945454
0
ARC
8
back_labelLayer
10
147.8315087
20
55.2060016
40
2.2440604
50
272.5980087
51
282.1878986
0
ARC
8
back_labelLayer
10
147.7866255
20
55.8944112
40
2.9338285
50
269.9655842
51
272.8642449
0
LINE
8
back_labelLayer
10
150.0181641
20
54.8329466
11
150.0439453
21
54.8329466
0
LINE
8
back_labelLayer
10
150.4661133
20
55.3485716
11
151.6069336
21
56.5570677
0
LINE
8
back_labelLayer
10
151.6069336
20
56.5570677
11
152.2417969
21
56.5570677
0
LINE
8
back_labelLayer
10
152.2417969
20
56.5570677
11
150.8109375
21
55.0520872
0
LINE
8
back_labelLayer
10
150.8109375
20
55.0520872
11
152.3416992
21
53.0250364
0
LINE
8
back_labelLayer
10
152.3416992
20
53.0250364
11
151.6939453
21
53.0250364
0
LINE
8
back_labelLayer
10
151.6939453
20
53.0250364
11
150.4467773
21
54.6943723
0
LINE
8
back_labelLayer
10
150.4467773
20
54.6943723
11
150.0439453
21
54.3463255
0
LINE
8
back_labelLayer
10
150.0439453
20
54.3463255
11
150.0439453
21
53.0250364
0
LINE
8
back_labelLayer
10
150.0439453
20
53.0250364
11
149.5154297
21
53.0250364
0
LINE
8
back_labelLayer
10
149.5154297
20
53.0250364
11
149.5154297
21
58.0394895
0
LINE
8
back_labelLayer
10
149.5154297
20
58.0394895
11
150.0439453
21
58.0394895
0
LINE
8
back_labelLayer
10
150.0439453
20
58.0394895
11
150.0439453
21
55.3807981
0
ARC
8
back_labelLayer
10
152.6284851
20
53.003511
40
3.1664934
50
142.3232299
51
144.7076884
0
ARC
8
back_labelLayer
10
154.3153457
20
51.7024024
40
5.2968411
50
140.4331137
51
142.336528
0
ARC
8
back_labelLayer
10
156.5140455
20
49.8924574
40
8.1446761
50
139.2799598
51
140.4701977
0
ARC
8
back_labelLayer
10
159.0537732
20
47.708462
40
11.4943107
50
138.3417445
51
139.2877461
0
ARC
8
back_labelLayer
10
146.4787719
20
55.3874695
40
3.5651796
50
358.2740516
51
359.8927848
0
ARC
8
back_labelLayer
10
143.7059273
20
55.4647366
40
6.3390964
50
357.5042385
51
358.3308408
0
ARC
8
back_labelLayer
10
139.5558926
20
55.6480368
40
10.4931766
50
356.6324702
51
357.4910734
0
ARC
8
back_labelLayer
10
132.6513401
20
56.0507509
40
17.4094629
50
356.0329611
51
356.6441836
0
ARC
8
back_labelLayer
10
127.5299011
20
56.3972252
40
22.5426028
50
356.0209276
51
356.0549981
0
LINE
8
right_outsideCutPath
10
300
20
72
11
300
21
63.06
0
LINE
8
right_outsideCutPath
10
300
20
63.06
11
294
21
63.06
0
LINE
8
right_outsideCutPath
10
294
20
63.06
11
294
21
47.94
0
LINE
8
right_outsideCutPath
10
294
20
47.94
11
300
21
47.94
0
LINE
8
right_outsideCutPath
10
300
20
47.94
11
300
21
39
0
LINE
8
right_outsideCutPath
10
300
20
39
11
311.58
21
39
0
LINE
8
right_outsideCutPath
10
311.58
20
39
11
311.58
21
45
0
LINE
8
right_outsideCutPath
10
311.58
20
45
11
326.7
21
45
0
LINE
8
right_outsideCutPath
10
326.7
20
45
11
326.7
21
39
0
LINE
8
right_outsideCutPath
10
326.7
20
39
11
341.82
21
39
0
LINE
8
right_outsideCutPath
10
341.82
20
39
11
341.82
21
45
0
LINE
8
right_outsideCutPath
10
341.82
20
45
11
356.94
21
45
0
LINE
8
right_outsideCutPath
10
356.94
20
45
11
356.94
21
39
0
LINE
8
right_outsideCutPath
10
356.94
20
39
11
372.06
21
39
0
LINE
8
right_outsideCutPath
10
372.06
20
39
11
372.06
21
45
0
LINE
8
right_outsideCutPath
10
372.06
20
45
11
387.18
21
45
0
LINE
8
right_outsideCutPath
10
387.18
20
45
11
387.18
21
39
0
LINE
8
right_outsideCutPath
10
387.18
20
39
11
402.3
21
39
0
LINE
8
right_outsideCutPath
10
402.3
20
39
11
402.3
21
45
0
LINE
8
right_outsideCutPath
10
402.3
20
45
11
417.42
21
45
0
LINE
8
right_outsideCutPath
10
417.42
20
45
11
417.42
21
39
0
LINE
8
right_outsideCutPath
10
417.42
20
39
11
429
21
39
0
LINE
8
right_outsideCutPath
10
429
20
39
11
429
21
47.94
0
LINE
8
right_outsideCutPath
10
429
20
47.94
11
435
21
47.94
0
LINE
8
right_outsideCutPath
10
435
20
47.94
11
435
21
63.06
0
LINE
8
right_outsideCutPath
10
435
20
63.06
11
429
21
63.06
0
LINE
8
right_outsideCutPath
10
429
20
63.06
11
429
21
72
0
LINE
8
right_outsideCutPath
10
429
20
72
11
300
21
72
0
LINE
8
right_labelLayer
10
359.7062988
20
57.3433788
11
359.6321777
21
56.8470897
0
LINE
8
right_labelLayer
10
358.2077637
20
55.6804881
11
358.2077637
21
53.7855663
0
LINE
8
right_labelLayer
10
358.2077637
20
53.7855663
11
357.6728027
21
53.7855663
0
LINE
8
right_labelLayer
10
357.6728027
20
53.7855663
11
357.6728027
21
57.3175975
0
LINE
8
right_labelLayer
10
357.6728027
20
57.3175975
11
358.1143066
21
57.3175975
0
LINE
8
right_labelLayer
10
358.1143066
20
57.3175975
11
358.1755371
21
56.6633983
0
LINE
8
right_labelLayer
10
358.1755371
20
56.6633983
11
358.2013184
21
56.6633983
0
ARC
8
right_labelLayer
10
359.2896238
20
54.9261804
40
2.4558764
50
84.9922461
51
90.1281519
0
ARC
8
right_labelLayer
10
359.3485993
20
55.5869306
40
1.7925006
50
78.4891576
51
85.026545
0
ARC
8
right_labelLayer
10
359.1196844
20
54.5457714
40
2.3576928
50
77.4453506
51
81.6360466
0
ARC
8
right_labelLayer
10
359.2224093
20
55.2538634
40
1.6421901
50
81.5883481
51
87.1917764
0
ARC
8
right_labelLayer
10
359.2447141
20
55.6406725
40
1.2547573
50
87.3436985
51
89.9659876
0
ARC
8
right_labelLayer
10
359.2395304
20
55.9685194
40
0.9269291
50
89.6335399
51
137.088076
0
ARC
8
right_labelLayer
10
359.4671343
20
55.7125963
40
1.2682933
50
135.6211109
51
138.837518
0
ARC
8
right_labelLayer
10
359.4336819
20
55.7452434
40
1.2216233
50
138.9575841
51
174.5422419
0
ARC
8
right_labelLayer
10
359.8315545
20
55.6829899
40
1.6237927
50
173.6908206
51
180.0882757
0
ARC
8
right_labelLayer
10
359.7752858
20
55.7766324
40
1.8065789
50
139.4139262
51
150.6032939
0
ARC
8
right_labelLayer
10
359.4513671
20
56.0541975
40
1.3800045
50
124.2321738
51
139.416126
0
ARC
8
right_labelLayer
10
359.2781689
20
56.3156383
40
1.0664291
50
89.6796794
51
124.4405632
0
LINE
8
right_labelLayer
10
360.9019043
20
57.3175975
11
360.9019043
21
53.7855663
0
LINE
8
right_labelLayer
10
360.9019043
20
53.7855663
11
360.3669434
21
53.7855663
0
LINE
8
right_labelLayer
10
360.3669434
20
53.7855663
11
360.3669434
21
57.3175975
0
LINE
8
right_labelLayer
10
360.3669434
20
57.3175975
11
360.9019043
21
57.3175975
0
ARC
8
right_labelLayer
10
360.9146239
20
58.2783928
40
0.5928091
50
170.8452063
51
180.354363
0
ARC
8
right_labelLayer
10
360.6926946
20
58.3155002
40
0.3678053
50
155.967885
51
171.0516521
0
ARC
8
right_labelLayer
10
360.5852092
20
58.3631851
40
0.2502174
50
133.7880479
51
155.9170801
0
ARC
8
right_labelLayer
10
360.6248923
20
58.3193138
40
0.3093535
50
92.6446002
51
133.4711169
0
ARC
8
right_labelLayer
10
360.6374274
20
58.2208177
40
0.4084008
50
89.9692634
51
93.7637958
0
ARC
8
right_labelLayer
10
360.6425306
20
58.3140636
40
0.3151929
50
46.3708741
51
90.8878665
0
ARC
8
right_labelLayer
10
360.6739009
20
58.3464497
40
0.2701063
50
17.7250698
51
46.4473392
0
ARC
8
right_labelLayer
10
360.5276164
20
58.2960754
40
0.424797
50
4.9426915
51
18.1899444
0
ARC
8
right_labelLayer
10
360.3414907
20
58.275957
40
0.6119772
50
359.8847861
51
5.3178604
0
ARC
8
right_labelLayer
10
360.3999792
20
58.2709678
40
0.5535003
50
349.8345366
51
0.3890786
0
ARC
8
right_labelLayer
10
360.6014897
20
58.2333767
40
0.3485216
50
332.6321259
51
350.070623
0
ARC
8
right_labelLayer
10
360.6799157
20
58.1946503
40
0.2610762
50
313.61539
51
332.2676719
0
ARC
8
right_labelLayer
10
360.6421189
20
58.2290664
40
0.3120868
50
269.1788748
51
314.2806708
0
ARC
8
right_labelLayer
10
360.6341009
20
58.2568106
40
0.3398175
50
250.5000651
51
270.5978256
0
ARC
8
right_labelLayer
10
360.623818
20
58.2183567
40
0.3001532
50
225.1302006
51
249.9000794
0
ARC
8
right_labelLayer
10
360.6077156
20
58.2005681
40
0.2761882
50
197.7932946
51
224.894153
0
ARC
8
right_labelLayer
10
360.7584167
20
58.252212
40
0.4354735
50
184.9926141
51
198.2040269
0
ARC
8
right_labelLayer
10
360.9534584
20
58.2734116
40
0.6316336
50
179.8807345
51
185.368632
0
LINE
8
right_labelLayer
10
363.7056152
20
57.3175975
11
364.9270019
21
57.3175975
0
LINE
8
right_labelLayer
10
364.9270019
20
57.3175975
11
364.9270019
21
56.9792186
0
LINE
8
right_labelLayer
10
364.9270019
20
56.9792186
11
364.2728027
21
56.9018749
0
LINE
8
right_labelLayer
10
363.0675293
20
54.3463084
11
363.6927246
21
54.3463084
0
LINE
8
right_labelLayer
10
363.5219238
20
53.8661327
11
362.8806152
21
53.8661327
0
ARC
8
right_labelLayer
10
363.5910642
20
56.3623566
40
0.8693948
50
29.4585042
51
38.3575911
0
ARC
8
right_labelLayer
10
363.2358152
20
56.1595594
40
1.2784501
50
23.1846182
51
29.5422667
0
ARC
8
right_labelLayer
10
362.8971091
20
56.0093443
40
1.6489483
50
21.2505959
51
23.3492132
0
ARC
8
right_labelLayer
10
363.4730225
20
56.2383888
40
1.0291887
50
6.8504381
51
20.9871682
0
ARC
8
right_labelLayer
10
363.1831504
20
56.1990856
40
1.3216871
50
359.8711413
51
7.0432252
0
ARC
8
right_labelLayer
10
363.278526
20
56.183362
40
1.2263743
50
342.5649745
51
0.5957391
0
ARC
8
right_labelLayer
10
363.5047083
20
56.1209045
40
0.9919034
50
310.6097549
51
342.0923705
0
ARC
8
right_labelLayer
10
363.3778724
20
56.2684385
40
1.1864635
50
284.931618
51
310.6222333
0
ARC
8
right_labelLayer
10
363.219156
20
56.8246069
40
1.7647768
50
272.5335114
51
285.2579564
0
ARC
8
right_labelLayer
10
363.178345
20
57.3820294
40
2.3235145
50
269.9692895
51
272.9312883
0
ARC
8
right_labelLayer
10
363.173286
20
56.7778281
40
1.7193168
50
263.4837654
51
270.1270866
0
ARC
8
right_labelLayer
10
363.1452552
20
56.5116263
40
1.4516556
50
259.4961169
51
263.3906144
0
ARC
8
right_labelLayer
10
363.3186008
20
54.2391014
40
0.9519383
50
117.393478
51
128.4095417
0
ARC
8
right_labelLayer
10
363.0735348
20
54.5431227
40
0.5614649
50
128.0881495
51
147.1400172
0
ARC
8
right_labelLayer
10
362.941509
20
54.6317232
40
0.4024993
50
147.5369886
51
180.2592158
0
ARC
8
right_labelLayer
10
362.816258
20
54.6264757
40
0.2772655
50
179.2919041
51
198.3579707
0
ARC
8
right_labelLayer
10
362.7643437
20
54.6128324
40
0.2237221
50
199.2291561
51
239.5691273
0
ARC
8
right_labelLayer
10
362.8074908
20
54.6724735
40
0.2970835
50
238.2199371
51
239.844618
0
ARC
8
right_labelLayer
10
362.8417243
20
54.742943
40
0.3752579
50
240.7301538
51
254.5027224
0
ARC
8
right_labelLayer
10
362.9441429
20
55.0958664
40
0.7427285
50
254.1635684
51
262.2123496
0
ARC
8
right_labelLayer
10
363.0252731
20
55.6625139
40
1.3151481
50
262.0555076
51
267.2082872
0
ARC
8
right_labelLayer
10
363.0644634
20
56.3813255
40
2.0350194
50
267.0918997
51
270.0863198
0
ARC
8
right_labelLayer
10
363.7044199
20
52.1565313
40
2.1898084
50
81.5744091
51
90.3060072
0
ARC
8
right_labelLayer
10
363.8245357
20
52.9398974
40
1.397303
50
68.3671351
51
81.7399316
0
ARC
8
right_labelLayer
10
363.9814203
20
53.3408356
40
0.9667701
50
52.1879546
51
68.2501181
0
ARC
8
right_labelLayer
10
364.0911943
20
53.4887488
40
0.7826253
50
8.6201543
51
51.8982426
0
ARC
8
right_labelLayer
10
363.7064553
20
53.4073424
40
1.1754412
50
359.7430105
51
9.7326079
0
ARC
8
right_labelLayer
10
363.7236847
20
53.3875113
40
1.1582916
50
340.526893
51
0.7201851
0
ARC
8
right_labelLayer
10
363.8938642
20
53.3451396
40
0.9838645
50
302.9903808
51
339.5494323
0
ARC
8
right_labelLayer
10
363.7155402
20
53.5716707
40
1.2712378
50
303.1867336
51
304.1724765
0
ARC
8
right_labelLayer
10
363.5487243
20
53.8604172
40
1.6043032
50
286.2542526
51
302.5280021
0
ARC
8
right_labelLayer
10
363.2457383
20
54.8598094
40
2.648578
50
276.4939808
51
286.495354
0
ARC
8
right_labelLayer
10
363.0566942
20
56.4401182
40
4.2401375
50
269.7544894
51
276.6169477
0
ARC
8
right_labelLayer
10
363.0244055
20
55.1972104
40
2.9972242
50
262.5634486
51
270.2699213
0
ARC
8
right_labelLayer
10
362.8776094
20
54.1091659
40
1.8993379
50
251.2102145
51
262.7063678
0
ARC
8
right_labelLayer
10
362.6660231
20
53.4881231
40
1.2432413
50
235.9668351
51
251.2228512
0
ARC
8
right_labelLayer
10
362.4417559
20
53.1681809
40
0.8526117
50
208.9036303
51
236.4231545
0
ARC
8
right_labelLayer
10
362.462343
20
53.1595503
40
0.8666397
50
182.2079795
51
207.7461834
0
ARC
8
right_labelLayer
10
362.7243155
20
53.1857234
40
1.1295401
50
179.9782491
51
183.0226794
0
ARC
8
right_labelLayer
10
362.4126311
20
53.2005027
40
0.8179816
50
138.3916153
51
181.0052373
0
ARC
8
right_labelLayer
10
362.4990108
20
53.1228728
40
0.9341172
50
113.8121401
51
138.3496135
0
ARC
8
right_labelLayer
10
362.6628603
20
52.7690558
40
1.3239865
50
102.2870422
51
114.1173148
0
ARC
8
right_labelLayer
10
362.6113791
20
54.5679331
40
0.5552229
50
216.5862363
51
245.4967817
0
ARC
8
right_labelLayer
10
362.6906647
20
54.6352159
40
0.6590236
50
215.4644968
51
217.1747162
0
ARC
8
right_labelLayer
10
362.558469
20
54.5397387
40
0.495959
50
182.1766903
51
215.3415653
0
ARC
8
right_labelLayer
10
362.676367
20
54.5523835
40
0.6143065
50
179.9836819
51
182.9375806
0
ARC
8
right_labelLayer
10
362.6737938
20
54.5577303
40
0.6117551
50
161.7225537
51
180.4843947
0
ARC
8
right_labelLayer
10
362.6065365
20
54.5760824
40
0.5421478
50
144.496354
51
161.3350171
0
ARC
8
right_labelLayer
10
362.7858398
20
54.4424501
40
0.7657366
50
132.7260304
51
144.147974
0
ARC
8
right_labelLayer
10
363.0731826
20
54.1356044
40
1.1861109
50
125.2212354
51
132.8656836
0
ARC
8
right_labelLayer
10
363.3620867
20
53.7344301
40
1.6804702
50
121.2352421
51
125.3795555
0
ARC
8
right_labelLayer
10
362.8499471
20
56.0375916
40
0.9378293
50
215.1640516
51
247.4747665
0
ARC
8
right_labelLayer
10
363.0250707
20
56.1789175
40
1.1624792
50
212.4715678
51
215.887501
0
ARC
8
right_labelLayer
10
362.9789755
20
56.1459397
40
1.1058897
50
183.0161152
51
212.3122863
0
ARC
8
right_labelLayer
10
363.221624
20
56.1729847
40
1.3497002
50
179.9758077
51
183.6206277
0
ARC
8
right_labelLayer
10
363.4174703
20
56.186608
40
1.5456016
50
166.8196205
51
180.4838994
0
ARC
8
right_labelLayer
10
362.9047269
20
56.316063
40
1.0168883
50
132.3287636
51
167.3340666
0
ARC
8
right_labelLayer
10
362.9733243
20
56.2174601
40
1.1360856
50
106.2189113
51
131.5377547
0
ARC
8
right_labelLayer
10
363.1468873
20
55.655477
40
1.7242073
50
93.6329859
51
106.5408829
0
ARC
8
right_labelLayer
10
363.203548
20
55.019304
40
2.3627479
50
89.9380287
51
94.0266969
0
ARC
8
right_labelLayer
10
363.2127227
20
55.3315156
40
2.0505458
50
82.5852572
51
90.1849513
0
ARC
8
right_labelLayer
10
363.2753786
20
55.8163052
40
1.5617241
50
74.0088891
51
82.5694655
0
ARC
8
right_labelLayer
10
362.6476293
20
53.1852905
40
0.5372786
50
179.2207557
51
200.9355873
0
ARC
8
right_labelLayer
10
362.5837385
20
53.1704968
40
0.4724056
50
202.0287055
51
236.1456723
0
ARC
8
right_labelLayer
10
362.6800639
20
53.2928126
40
0.6277567
50
235.063686
51
238.5040353
0
ARC
8
right_labelLayer
10
362.7919804
20
53.4927185
40
0.8567287
50
239.1066067
51
254.4862223
0
ARC
8
right_labelLayer
10
362.9412367
20
54.0073504
40
1.3925458
50
254.2323709
51
263.4937268
0
ARC
8
right_labelLayer
10
363.0349924
20
54.8014428
40
2.1921496
50
263.4108304
51
270.1457736
0
ARC
8
right_labelLayer
10
363.0448462
20
55.2963999
40
2.6871031
50
269.9088155
51
270.0026555
0
ARC
8
right_labelLayer
10
363.0577935
20
56.2055328
40
3.5962589
50
269.795706
51
275.3991096
0
ARC
8
right_labelLayer
10
363.1923916
20
54.8237606
40
2.2079559
50
275.2956717
51
283.3516537
0
ARC
8
right_labelLayer
10
363.4116778
20
53.9205724
40
1.2785497
50
283.1370605
51
295.8573428
0
ARC
8
right_labelLayer
10
363.5741772
20
53.5658226
40
0.888486
50
296.4046764
51
301.8009699
0
ARC
8
right_labelLayer
10
363.6378702
20
53.4780373
40
0.7803541
50
301.2230191
51
318.6238196
0
ARC
8
right_labelLayer
10
363.781554
20
53.3453108
40
0.5848217
50
319.0765565
51
1.1406734
0
ARC
8
right_labelLayer
10
363.6424973
20
53.3626877
40
0.7237852
50
359.5460257
51
10.9904362
0
ARC
8
right_labelLayer
10
363.9220659
20
53.4195505
40
0.4385106
50
10.6609838
51
30.9361226
0
ARC
8
right_labelLayer
10
364.0107131
20
53.4687463
40
0.3372005
50
31.5095354
51
58.0778091
0
ARC
8
right_labelLayer
10
363.9276322
20
53.3199866
40
0.5074587
50
58.9972385
51
73.8586304
0
ARC
8
right_labelLayer
10
363.7597048
20
52.7702427
40
1.0822494
50
73.4099976
51
81.5906403
0
ARC
8
right_labelLayer
10
363.617417
20
51.8494118
40
2.0139979
50
81.4173479
51
86.5755538
0
ARC
8
right_labelLayer
10
363.5302363
20
50.4622716
40
3.4038713
50
86.5053955
51
90.1399202
0
ARC
8
right_labelLayer
10
362.872965
20
52.636439
40
1.2297174
50
89.6435554
51
100.0209674
0
ARC
8
right_labelLayer
10
362.795674
20
53.0568904
40
0.8022367
50
99.8102948
51
116.8230045
0
ARC
8
right_labelLayer
10
362.7203813
20
53.2156692
40
0.6265829
50
117.230395
51
130.5024619
0
ARC
8
right_labelLayer
10
362.6817301
20
53.265344
40
0.5637156
50
130.7944994
51
169.0413217
0
ARC
8
right_labelLayer
10
362.9663835
20
53.1983059
40
0.8560021
50
168.2579883
51
180.382091
0
ARC
8
right_labelLayer
10
363.4446334
20
56.1784581
40
1.0442245
50
179.5617522
51
191.6529625
0
ARC
8
right_labelLayer
10
363.0815721
20
56.1000161
40
0.6728115
50
191.3555096
51
213.3660433
0
ARC
8
right_labelLayer
10
362.9943881
20
56.0496767
40
0.5723422
50
213.9574728
51
227.7970274
0
ARC
8
right_labelLayer
10
363.0702398
20
56.1416755
40
0.6914689
50
228.2620788
51
254.7341175
0
ARC
8
right_labelLayer
10
363.1671505
20
56.4738819
40
1.037487
50
254.4015659
51
267.4349481
0
ARC
8
right_labelLayer
10
363.1924363
20
56.8130408
40
1.3774746
50
267.0155895
51
270.0323003
0
ARC
8
right_labelLayer
10
363.2089619
20
56.6009039
40
1.165444
50
269.2257185
51
284.3772933
0
ARC
8
right_labelLayer
10
363.3678101
20
56.0474727
40
0.5901319
50
282.7796638
51
346.4828382
0
ARC
8
right_labelLayer
10
362.8929009
20
56.1819948
40
1.0835095
50
345.4361758
51
0.746597
0
ARC
8
right_labelLayer
10
362.8261425
20
56.2125627
40
1.1502934
50
359.1806259
51
15.0431903
0
ARC
8
right_labelLayer
10
363.3473597
20
56.3646073
40
0.6075853
50
13.953595
51
77.6673665
0
ARC
8
right_labelLayer
10
363.1978177
20
55.8287109
40
1.1634857
50
76.109516
51
90.7028777
0
ARC
8
right_labelLayer
10
363.1754329
20
55.8696429
40
1.1224957
50
89.5859326
51
101.3334415
0
ARC
8
right_labelLayer
10
363.0952147
20
56.2522438
40
0.7315993
50
101.0620176
51
121.9739367
0
ARC
8
right_labelLayer
10
363.0388402
20
56.3536581
40
0.6157465
50
122.5211152
51
134.9966859
0
ARC
8
right_labelLayer
10
363.0620531
20
56.3397506
40
0.642028
50
135.5840324
51
163.0015474
0
ARC
8
right_labelLayer
10
363.4010967
20
56.2286252
40
0.9987724
50
162.5912288
51
175.734249
0
ARC
8
right_labelLayer
10
363.8077882
20
56.188565
40
1.4073503
50
175.3394042
51
180.0863036
0
LINE
8
right_labelLayer
10
368.6040527
20
53.7855663
11
368.0690918
21
53.7855663
0
LINE
8
right_labelLayer
10
368.0690918
20
53.7855663
11
368.0690918
21
56.0704295
0
LINE
8
right_labelLayer
10
366.1870605
20
55.6321483
11
366.1870605
21
53.7855663
0
LINE
8
right_labelLayer
10
366.1870605
20
53.7855663
11
365.6520996
21
53.7855663
0
LINE
8
right_labelLayer
10
365.6520996
20
53.7855663
11
365.6520996
21
58.8000194
0
LINE
8
right_labelLayer
10
365.6520996
20
58.8000194
11
366.1870605
21
58.8000194
0
LINE
8
right_labelLayer
10
366.1870605
20
58.8000194
11
366.1870605
21
57.2821483
0
LINE
8
right_labelLayer
10
366.1612793
20
56.8277538
11
366.1935059
21
56.8277538
0
LINE
8
right_labelLayer
10
368.6040527
20
56.0897655
11
368.6040527
21
53.7855663
0
ARC
8
right_labelLayer
10
366.5569091
20
56.0791019
40
1.5122076
50
359.6714113
51
8.687679
0
ARC
8
right_labelLayer
10
367.1173833
20
56.1679884
40
0.9447432
50
8.4931249
51
22.6580116
0
ARC
8
right_labelLayer
10
367.4021386
20
56.2863251
40
0.6363785
50
22.7023686
51
42.3420089
0
ARC
8
right_labelLayer
10
367.4341421
20
56.3007194
40
0.603127
50
43.3791365
51
71.5385594
0
ARC
8
right_labelLayer
10
367.31445
20
55.9662658
40
0.9583014
50
71.0828321
51
84.3691094
0
ARC
8
right_labelLayer
10
367.2607235
20
55.509474
40
1.418187
50
84.019759
51
90.1511427
0
ARC
8
right_labelLayer
10
367.2454542
20
55.3088227
40
1.6188744
50
89.5919842
51
100.3595197
0
ARC
8
right_labelLayer
10
367.1308238
20
55.9112239
40
1.0056897
50
100.1068265
51
118.0847036
0
ARC
8
right_labelLayer
10
367.014232
20
56.140005
40
0.748974
50
118.4550636
51
139.6706344
0
ARC
8
right_labelLayer
10
367.131284
20
56.0599976
40
0.8901086
50
140.6208447
51
160.504855
0
ARC
8
right_labelLayer
10
367.7482605
20
55.8315973
40
1.5479655
50
160.1567659
51
171.5312708
0
ARC
8
right_labelLayer
10
368.7465203
20
55.6734343
40
2.5586508
50
171.3202136
51
178.340656
0
ARC
8
right_labelLayer
10
369.6397846
20
55.633526
40
3.4527245
50
178.1079135
51
180.0228625
0
ARC
8
right_labelLayer
10
361.3746164
20
57.2764119
40
4.8124476
50
357.8674535
51
0.0682962
0
ARC
8
right_labelLayer
10
363.0096886
20
57.2140301
40
3.1761867
50
354.9827818
51
357.8944284
0
ARC
8
right_labelLayer
10
364.0891702
20
57.1200237
40
2.09262
50
351.9714219
51
354.9619724
0
ARC
8
right_labelLayer
10
367.099641
20
56.260934
40
1.068815
50
119.8316285
51
147.9725533
0
ARC
8
right_labelLayer
10
367.2290681
20
56.0621022
40
1.3057521
50
116.6657442
51
120.4181974
0
ARC
8
right_labelLayer
10
367.2532271
20
55.9986403
40
1.3733238
50
96.6652701
51
116.3782326
0
ARC
8
right_labelLayer
10
367.3052943
20
55.6393944
40
1.7362139
50
89.8927288
51
96.9958735
0
ARC
8
right_labelLayer
10
367.321944
20
55.2052426
40
2.1704041
50
80.6862655
51
90.3537196
0
ARC
8
right_labelLayer
10
367.4570899
20
56.0001377
40
1.3641243
50
65.6022414
51
80.8844398
0
ARC
8
right_labelLayer
10
367.6193707
20
56.3656283
40
0.9642442
50
46.7401004
51
65.4130636
0
ARC
8
right_labelLayer
10
367.6303993
20
56.400454
40
0.9314589
50
19.2204466
51
45.766032
0
ARC
8
right_labelLayer
10
367.0933089
20
56.2013519
40
1.5041982
50
6.4733942
51
19.6467512
0
ARC
8
right_labelLayer
10
366.2907514
20
56.09806
40
2.3133162
50
359.7945624
51
6.7743633
0
LINE
8
right_labelLayer
10
371.3271973
20
54.2270702
11
371.3271973
21
53.8177928
0
LINE
8
right_labelLayer
10
369.7416504
20
54.800703
11
369.7416504
21
56.9018749
0
LINE
8
right_labelLayer
10
369.7416504
20
56.9018749
11
369.2356934
21
56.9018749
0
LINE
8
right_labelLayer
10
369.2356934
20
56.9018749
11
369.2356934
21
57.1596874
0
LINE
8
right_labelLayer
10
369.2356934
20
57.1596874
11
369.7416504
21
57.3820506
0
LINE
8
right_labelLayer
10
369.7416504
20
57.3820506
11
369.9672363
21
58.1361522
0
LINE
8
right_labelLayer
10
369.9672363
20
58.1361522
11
370.2766113
21
58.1361522
0
LINE
8
right_labelLayer
10
370.2766113
20
58.1361522
11
370.2766113
21
57.3175975
0
LINE
8
right_labelLayer
10
370.2766113
20
57.3175975
11
371.301416
21
57.3175975
0
LINE
8
right_labelLayer
10
371.301416
20
57.3175975
11
371.301416
21
56.9018749
0
LINE
8
right_labelLayer
10
371.301416
20
56.9018749
11
370.2766113
21
56.9018749
0
LINE
8
right_labelLayer
10
370.2766113
20
56.9018749
11
370.2766113
21
54.8232616
0
ARC
8
right_labelLayer
10
370.8474688
20
55.9194885
40
1.7568752
50
269.8803126
51
278.3028368
0
ARC
8
right_labelLayer
10
370.8647722
20
55.7790431
40
1.6154063
50
278.4148831
51
279.0088774
0
ARC
8
right_labelLayer
10
370.6670146
20
57.0424524
40
2.8941978
50
278.9590675
51
280.5103648
0
ARC
8
right_labelLayer
10
370.8549928
20
56.0338489
40
1.8682271
50
280.4845579
51
282.6269651
0
ARC
8
right_labelLayer
10
371.0196777
20
55.3022146
40
1.1182878
50
282.5877834
51
285.579438
0
ARC
8
right_labelLayer
10
371.1017127
20
55.0004131
40
0.8055449
50
285.7241889
51
286.255164
0
ARC
8
right_labelLayer
10
371.1022945
20
54.2934722
40
0.5261674
50
287.9886221
51
295.3049411
0
ARC
8
right_labelLayer
10
370.9753702
20
54.6774723
40
0.930597
50
283.3069561
51
288.1197571
0
ARC
8
right_labelLayer
10
370.8413125
20
55.2366526
40
1.5056207
50
280.0070158
51
283.3736664
0
ARC
8
right_labelLayer
10
370.7517141
20
55.7228216
40
1.9999661
50
279.1862149
51
280.1145702
0
ARC
8
right_labelLayer
10
370.6965258
20
56.0367719
40
2.3187044
50
275.5261239
51
279.2939608
0
ARC
8
right_labelLayer
10
370.7585796
20
55.3886709
40
1.6676398
50
270.8933662
51
275.5483347
0
ARC
8
right_labelLayer
10
370.7663796
20
55.0923527
40
1.3712395
50
270.0031557
51
270.7605367
0
ARC
8
right_labelLayer
10
370.7448677
20
55.1181844
40
1.397238
50
253.7847785
51
270.8852572
0
ARC
8
right_labelLayer
10
370.5793323
20
54.5536462
40
0.8089334
50
190.3817653
51
253.8772199
0
ARC
8
right_labelLayer
10
371.4230602
20
54.7817759
40
1.6815162
50
179.3550663
51
192.847771
0
ARC
8
right_labelLayer
10
371.3538191
20
54.8165232
40
1.0772288
50
179.6415986
51
189.7505809
0
ARC
8
right_labelLayer
10
370.9735377
20
54.7486952
40
0.6909577
50
189.5479184
51
205.7873815
0
ARC
8
right_labelLayer
10
370.8172593
20
54.6766303
40
0.5189011
50
206.1294504
51
221.4083942
0
ARC
8
right_labelLayer
10
370.7997362
20
54.6633343
40
0.4969668
50
221.5949395
51
262.3504734
0
ARC
8
right_labelLayer
10
370.8414101
20
54.8776361
40
0.715023
50
261.3266036
51
270.1914099
0
LINE
8
bottom_outsideCutPath
10
444
20
138
11
444
21
126.42
0
LINE
8
bottom_outsideCutPath
10
444
20
126.42
11
438
21
126.42
0
LINE
8
bottom_outsideCutPath
10
438
20
126.42
11
438
21
111.3
0
LINE
8
bottom_outsideCutPath
10
438
20
111.3
11
444
21
111.3
0
LINE
8
bottom_outsideCutPath
10
444
20
111.3
11
444
21
96.18
0
LINE
8
bottom_outsideCutPath
10
444
20
96.18
11
438
21
96.18
0
LINE
8
bottom_outsideCutPath
10
438
20
96.18
11
438
21
81.06
0
LINE
8
bottom_outsideCutPath
10
438
20
81.06
11
444
21
81.06
0
LINE
8
bottom_outsideCutPath
10
444
20
81.06
11
444
21
65.94
0
LINE
8
bottom_outsideCutPath
10
444
20
65.94
11
438
21
65.94
0
LINE
8
bottom_outsideCutPath
10
438
20
65.94
11
438
21
50.82
0
LINE
8
bottom_outsideCutPath
10
438
20
50.82
11
444
21
50.82
0
LINE
8
bottom_outsideCutPath
10
444
20
50.82
11
444
21
35.7
0
LINE
8
bottom_outsideCutPath
10
444
20
35.7
11
438
21
35.7
0
LINE
8
bottom_outsideCutPath
10
438
20
35.7
11
438
21
20.58
0
LINE
8
bottom_outsideCutPath
10
438
20
20.58
11
444
21
20.58
0
LINE
8
bottom_outsideCutPath
10
444
20
20.58
11
444
21
9
0
LINE
8
bottom_outsideCutPath
10
444
20
9
11
454.98
21
9
0
LINE
8
bottom_outsideCutPath
10
454.98
20
9
11
454.98
21
3
0
LINE
8
bottom_outsideCutPath
10
454.98
20
3
11
470.1
21
3
0
LINE
8
bottom_outsideCutPath
10
470.1
20
3
11
470.1
21
9
0
LINE
8
bottom_outsideCutPath
10
470.1
20
9
11
485.22
21
9
0
LINE
8
bottom_outsideCutPath
10
485.22
20
9
11
485.22
21
3
0
LINE
8
bottom_outsideCutPath
10
485.22
20
3
11
500.34
21
3
0
LINE
8
bottom_outsideCutPath
10
500.34
20
3
11
500.34
21
9
0
LINE
8
bottom_outsideCutPath
10
500.34
20
9
11
515.46
21
9
0
LINE
8
bottom_outsideCutPath
10
515.46
20
9
11
515.46
21
3
0
LINE
8
bottom_outsideCutPath
10
515.46
20
3
11
530.58
21
3
0
LINE
8
bottom_outsideCutPath
10
530.58
20
3
11
530.58
21
9
0
LINE
8
bottom_outsideCutPath
10
530.58
20
9
11
545.7
21
9
0
LINE
8
bottom_outsideCutPath
10
545.7
20
9
11
545.7
21
3
0
LINE
8
bottom_outsideCutPath
10
545.7
20
3
11
560.82
21
3
0
LINE
8
bottom_outsideCutPath
10
560.82
20
3
11
560.82
21
9
0
LINE
8
bottom_outsideCutPath
10
560.82
20
9
11
575.94
21
9
0
LINE
8
bottom_outsideCutPath
10
575.94
20
9
11
575.94
21
3
0
LINE
8
bottom_outsideCutPath
10
575.94
20
3
11
591.06
21
3
0
LINE
8
bottom_outsideCutPath
10
591.06
20
3
11
591.06
21
9
0
LINE
8
bottom_outsideCutPath
10
591.06
20
9
11
606.18
21
9
0
LINE
8
bottom_outsideCutPath
10
606.18
20
9
11
606.18
21
3
0
LINE
8
bottom_outsideCutPath
10
606.18
20
3
11
621.3
21
3
0
LINE
8
bottom_outsideCutPath
10
621.3
20
3
11
621.3
21
9
0
LINE
8
bottom_outsideCutPath
10
621.3
20
9
11
636.42
21
9
0
LINE
8
bottom_outsideCutPath
10
636.42
20
9
11
636.42
21
3
0
LINE
8
bottom_outsideCutPath
10
636.42
20
3
11
651.54
21
3
0
LINE
8
bottom_outsideCutPath
10
651.54
20
3
11
651.54
21
9
0
LINE
8
bottom_outsideCutPath
10
651.54
20
9
11
666.66
21
9
0
LINE
8
bottom_outsideCutPath
10
666.66
20
9
11
666.66
21
3
0
LINE
8
bottom_outsideCutPath
10
666.66
20
3
11
681.78
21
3
0
LINE
8
bottom_outsideCutPath
10
681.78
20
3
11
681.78
21
9
0
LINE
8
bottom_outsideCutPath
10
681.78
20
9
11
696.9
21
9
0
LINE
8
bottom_outsideCutPath
10
696.9
20
9
11
696.9
21
3
0
LINE
8
bottom_outsideCutPath
10
696.9
20
3
11
712.02
21
3
0
LINE
8
bottom_outsideCutPath
10
712.02
20
3
11
712.02
21
9
0
LINE
8
bottom_outsideCutPath
10
712.02
20
9
11
723
21
9
0
LINE
8
bottom_outsideCutPath
10
723
20
9
11
723
21
20.58
0
LINE
8
bottom_outsideCutPath
10
723
20
20.58
11
729
21
20.58
0
LINE
8
bottom_outsideCutPath
10
729
20
20.58
11
729
21
35.7
0
LINE
8
bottom_outsideCutPath
10
729
20
35.7
11
723
21
35.7
0
LINE
8
bottom_outsideCutPath
10
723
20
35.7
11
723
21
50.82
0
LINE
8
bottom_outsideCutPath
10
723
20
50.82
11
729
21
50.82
0
LINE
8
bottom_outsideCutPath
10
729
20
50.82
11
729
21
65.94
0
LINE
8
bottom_outsideCutPath
10
729
20
65.94
11
723
21
65.94
0
LINE
8
bottom_outsideCutPath
10
723
20
65.94
11
723
21
81.06
0
LINE
8
bottom_outsideCutPath
10
723
20
81.06
11
729
21
81.06
0
LINE
8
bottom_outsideCutPath
10
729
20
81.06
11
729
21
96.18
0
LINE
8
bottom_outsideCutPath
10
729
20
96.18
11
723
21
96.18
0
LINE
8
bottom_outsideCutPath
10
723
20
96.18
11
723
21
111.3
0
LINE
8
bottom_outsideCutPath
10
723
20
111.3
11
729
21
111.3
0
LINE
8
bottom_outsideCutPath
10
729
20
111.3
11
729
21
126.42
0
LINE
8
bottom_outsideCutPath
10
729
20
126.42
11
723
21
126.42
0
LINE
8
bottom_outsideCutPath
10
723
20
126.42
11
723
21
138
0
LINE
8
bottom_outsideCutPath
10
723
20
138
11
712.02
21
138
0
LINE
8
bottom_outsideCutPath
10
712.02
20
138
11
712.02
21
144
0
LINE
8
bottom_outsideCutPath
10
712.02
20
144
11
696.9
21
144
0
LINE
8
bottom_outsideCutPath
10
696.9
20
144
11
696.9
21
138
0
LINE
8
bottom_outsideCutPath
10
696.9
20
138
11
681.78
21
138
0
LINE
8
bottom_outsideCutPath
10
681.78
20
138
11
681.78
21
144
0
LINE
8
bottom_outsideCutPath
10
681.78
20
144
11
666.66
21
144
0
LINE
8
bottom_outsideCutPath
10
666.66
20
144
11
666.66
21
138
0
LINE
8
bottom_outsideCutPath
10
666.66
20
138
11
651.54
21
138
0
LINE
8
bottom_outsideCutPath
10
651.54
20
138
11
651.54
21
144
0
LINE
8
bottom_outsideCutPath
10
651.54
20
144
11
636.42
21
144
0
LINE
8
bottom_outsideCutPath
10
636.42
20
144
11
636.42
21
138
0
LINE
8
bottom_outsideCutPath
10
636.42
20
138
11
621.3
21
138
0
LINE
8
bottom_outsideCutPath
10
621.3
20
138
11
621.3
21
144
0
LINE
8
bottom_outsideCutPath
10
621.3
20
144
11
606.18
21
144
0
LINE
8
bottom_outsideCutPath
10
606.18
20
144
11
606.18
21
138
0
LINE
8
bottom_outsideCutPath
10
606.18
20
138
11
591.06
21
138
0
LINE
8
bottom_outsideCutPath
10
591.06
20
138
11
591.06
21
144
0
LINE
8
bottom_outsideCutPath
10
591.06
20
144
11
575.94
21
144
0
LINE
8
bottom_outsideCutPath
10
575.94
20
144
11
575.94
21
138
0
LINE
8
bottom_outsideCutPath
10
575.94
20
138
11
560.82
21
138
0
LINE
8
bottom_outsideCutPath
10
560.82
20
138
11
560.82
21
144
0
LINE
8
bottom_outsideCutPath
10
560.82
20
144
11
545.7
21
144
0
LINE
8
bottom_outsideCutPath
10
545.7
20
144
11
545.7
21
138
0
LINE
8
bottom_outsideCutPath
10
545.7
20
138
11
530.58
21
138
0
LINE
8
bottom_outsideCutPath
10
530.58
20
138
11
530.58
21
144
0
LINE
8
bottom_outsideCutPath
10
530.58
20
144
11
515.46
21
144
0
LINE
8
bottom_outsideCutPath
10
515.46
20
144
11
515.46
21
138
0
LINE
8
bottom_outsideCutPath
10
515.46
20
138
11
500.34
21
138
0
LINE
8
bottom_outsideCutPath
10
500.34
20
138
11
500.34
21
144
0
LINE
8
bottom_outsideCutPath
10
500.34
20
144
11
485.22
21
144
0
LINE
8
bottom_outsideCutPath
10
485.22
20
144
11
485.22
21
138
0
LINE
8
bottom_outsideCutPath
10
485.22
20
138
11
470.1
21
138
0
LINE
8
bottom_outsideCutPath
10
470.1
20
138
11
470.1
21
144
0
LINE
8
bottom_outsideCutPath
10
470.1
20
144
11
454.98
21
144
0
LINE
8
bottom_outsideCutPath
10
454.98
20
144
11
454.98
21
138
0
LINE
8
bottom_outsideCutPath
10
454.98
20
138
11
444
21
138
0
LINE
8
bottom_labelLayer
10
539.3961245
20
64.8668602
11
539.2308902
21
64.8668602
0
LINE
8
bottom_labelLayer
10
539.2308902
20
64.8668602
11
538.7489566
21
62.9253563
0
LINE
8
bottom_labelLayer
10
538.7489566
20
62.9253563
11
537.1103823
21
62.9253563
0
LINE
8
bottom_labelLayer
10
537.1103823
20
62.9253563
11
537.1103823
21
84.3507469
0
LINE
8
bottom_labelLayer
10
537.1103823
20
84.3507469
11
539.3961245
21
84.3507469
0
LINE
8
bottom_labelLayer
10
539.3961245
20
84.3507469
11
539.3961245
21
79.1458641
0
LINE
8
bottom_labelLayer
10
539.2859683
20
76.006411
11
539.3961245
21
76.006411
0
ARC
8
bottom_labelLayer
10
544.2014118
20
71.2789301
40
6.9860205
50
74.2393248
51
90.5623734
0
ARC
8
bottom_labelLayer
10
544.663352
20
72.973574
40
5.2296391
50
38.5631256
51
74.0670365
0
ARC
8
bottom_labelLayer
10
543.474575
20
72.0492305
40
6.7354088
50
16.4709255
51
38.4075283
0
ARC
8
bottom_labelLayer
10
540.0498818
20
70.9753459
40
10.32421
50
5.1338511
51
16.7973432
0
ARC
8
bottom_labelLayer
10
535.726504
20
70.516089
40
14.6715091
50
359.877922
51
5.4093545
0
ARC
8
bottom_labelLayer
10
536.9963794
20
70.4057614
40
13.4018339
50
350.6562783
51
0.3380329
0
ARC
8
bottom_labelLayer
10
541.6684737
20
69.6110894
40
8.6627457
50
335.8305914
51
350.8254786
0
ARC
8
bottom_labelLayer
10
543.7236467
20
68.7240473
40
6.4246254
50
321.3161459
51
335.5436152
0
ARC
8
bottom_labelLayer
10
544.5093532
20
68.083816
40
5.4111456
50
274.0640053
51
321.4080998
0
ARC
8
bottom_labelLayer
10
544.1433173
20
70.4024569
40
7.7524983
50
269.9225903
51
275.5481456
0
ARC
8
bottom_labelLayer
10
544.0942966
20
69.5830087
40
6.9331502
50
255.775543
51
270.3185523
0
ARC
8
bottom_labelLayer
10
543.8964394
20
68.7039569
40
6.0324803
50
245.9801542
51
255.545593
0
ARC
8
bottom_labelLayer
10
543.5132237
20
67.8127864
40
5.062508
50
215.585025
51
245.8361626
0
ARC
8
bottom_labelLayer
10
491.7402277
20
79.105576
40
47.6559139
50
358.1123195
51
0.0484375
0
ARC
8
bottom_labelLayer
10
505.0036965
20
78.6602822
40
34.3849758
50
355.7238595
51
358.1258997
0
ARC
8
bottom_labelLayer
10
510.8398969
20
78.2594058
40
28.535153
50
355.4714946
51
355.6527658
0
ARC
8
bottom_labelLayer
10
543.6589344
20
73.0338385
40
5.1968966
50
95.183516
51
145.1108951
0
ARC
8
bottom_labelLayer
10
544.1157214
20
70.4579924
40
7.8066405
50
89.8743359
51
96.8145531
0
ARC
8
bottom_labelLayer
10
543.7545203
20
69.9277064
40
6.4231211
50
89.5731251
51
100.7324274
0
ARC
8
bottom_labelLayer
10
543.2790296
20
72.3300456
40
3.9743068
50
100.4469334
51
119.6700789
0
ARC
8
bottom_labelLayer
10
542.8381083
20
73.1543997
40
3.0398777
50
120.140292
51
142.4248884
0
ARC
8
bottom_labelLayer
10
543.5675837
20
72.6718296
40
3.9127955
50
143.3382453
51
161.2559773
0
ARC
8
bottom_labelLayer
10
546.6181141
20
71.5887927
40
7.1497045
50
160.892656
51
171.2334124
0
ARC
8
bottom_labelLayer
10
551.7105533
20
70.7672632
40
12.3079119
50
171.066776
51
177.8456889
0
ARC
8
bottom_labelLayer
10
557.0066731
20
70.4979025
40
17.6105534
50
177.6176702
51
180.0425346
0
ARC
8
bottom_labelLayer
10
554.5091486
20
70.4258148
40
15.1131393
50
179.7762696
51
185.7075281
0
ARC
8
bottom_labelLayer
10
548.5505827
20
69.81187
40
9.1230742
50
185.5924798
51
194.20506
0
ARC
8
bottom_labelLayer
10
544.7335729
20
68.8212242
40
5.179731
50
193.9430335
51
208.021842
0
ARC
8
bottom_labelLayer
10
543.1892167
20
68.0355699
40
3.4474636
50
208.5536819
51
217.5605272
0
ARC
8
bottom_labelLayer
10
543.0633804
20
67.983227
40
3.3159909
50
218.1690396
51
253.8047251
0
ARC
8
bottom_labelLayer
10
543.6784341
20
69.8795001
40
5.3089185
50
253.1382474
51
266.8483087
0
ARC
8
bottom_labelLayer
10
543.8509011
20
71.9133293
40
7.3494018
50
266.3775281
51
270.0510757
0
ARC
8
bottom_labelLayer
10
543.9062115
20
69.1202718
40
4.5566022
50
269.3868829
51
285.8630671
0
ARC
8
bottom_labelLayer
10
544.2447381
20
67.8967909
40
3.2871933
50
286.0162879
51
326.8497406
0
ARC
8
bottom_labelLayer
10
542.6108302
20
68.9791953
40
5.2470792
50
326.7105062
51
343.6661787
0
ARC
8
bottom_labelLayer
10
539.5522506
20
69.9137983
40
8.4451341
50
343.4171351
51
353.6369091
0
ARC
8
bottom_labelLayer
10
534.9325661
20
70.4619556
40
13.0971517
50
353.4934784
51
0.2205384
0
ARC
8
bottom_labelLayer
10
534.5253505
20
70.5670287
40
13.5043808
50
359.7680873
51
6.3095224
0
ARC
8
bottom_labelLayer
10
539.6121843
20
71.150773
40
8.384233
50
6.1648665
51
16.0396417
0
ARC
8
bottom_labelLayer
10
542.8890374
20
72.1164615
40
4.9681751
50
15.7779356
51
32.0151351
0
ARC
8
bottom_labelLayer
10
543.9109793
20
72.7017012
40
3.791675
50
32.7033958
51
35.5243242
0
ARC
8
bottom_labelLayer
10
544.2845979
20
72.9672597
40
3.3332963
50
35.5408382
51
79.8011259
0
ARC
8
bottom_labelLayer
10
543.8369701
20
71.0643123
40
5.2864503
50
78.6781191
51
90.3749579
0
ARC
8
bottom_labelLayer
10
555.6105941
20
70.4052341
40
11.8067948
50
349.1761873
51
0.386259
0
ARC
8
bottom_labelLayer
10
559.5856626
20
69.612796
40
7.7536996
50
330.2507057
51
349.4116448
0
ARC
8
bottom_labelLayer
10
560.8089783
20
68.976967
40
6.376346
50
318.1439841
51
329.7566087
0
ARC
8
bottom_labelLayer
10
561.0297812
20
68.8000157
40
6.0938339
50
278.8959174
51
317.9979142
0
ARC
8
bottom_labelLayer
10
560.4608811
20
71.5256629
40
8.8757817
50
269.7502935
51
279.8033291
0
ARC
8
bottom_labelLayer
10
560.3686176
20
69.9899279
40
7.3401579
50
253.5436914
51
270.418247
0
ARC
8
bottom_labelLayer
10
560.1242807
20
69.044769
40
6.3645874
50
238.8115611
51
253.2428288
0
ARC
8
bottom_labelLayer
10
560.0454205
20
68.8861824
40
6.1881007
50
207.7947003
51
238.6758017
0
ARC
8
bottom_labelLayer
10
561.1769737
20
69.5792
40
7.5127429
50
205.6559991
51
208.446103
0
ARC
8
bottom_labelLayer
10
562.0485271
20
69.9423484
40
8.4557489
50
188.9102523
51
205.3171427
0
ARC
8
bottom_labelLayer
10
564.9857748
20
70.4398207
40
11.4346607
50
179.7744761
51
189.0932785
0
ARC
8
bottom_labelLayer
10
565.4190424
20
70.5652137
40
11.868112
50
169.2442969
51
180.3880774
0
ARC
8
bottom_labelLayer
10
561.3887251
20
71.361861
40
7.7599882
50
150.7111487
51
169.4695415
0
ARC
8
bottom_labelLayer
10
560.1021335
20
72.0225708
40
6.3148649
50
138.1759583
51
150.228728
0
ARC
8
bottom_labelLayer
10
559.8881057
20
72.1868112
40
6.0458834
50
99.1759391
51
137.9832747
0
ARC
8
bottom_labelLayer
10
560.4771581
20
69.4146639
40
8.8775858
50
89.7326274
51
100.0759805
0
ARC
8
bottom_labelLayer
10
560.5948905
20
70.6118565
40
7.6806757
50
73.5222778
51
90.5692242
0
ARC
8
bottom_labelLayer
10
561.0453166
20
72.2483764
40
5.9836945
50
41.1445618
51
73.2133816
0
ARC
8
bottom_labelLayer
10
560.1854867
20
71.5093648
40
7.117438
50
13.5014421
51
41.0703355
0
ARC
8
bottom_labelLayer
10
556.8635636
20
70.6400618
40
10.5507429
50
1.1277169
51
13.8800054
0
ARC
8
bottom_labelLayer
10
554.0019214
20
70.4867255
40
13.4151993
50
359.9919
51
1.5419455
0
ARC
8
bottom_labelLayer
10
567.4943809
20
70.4254287
40
11.5749713
50
179.7059693
51
187.9160723
0
ARC
8
bottom_labelLayer
10
563.2490347
20
69.8155911
40
7.2861169
50
187.763932
51
200.0976863
0
ARC
8
bottom_labelLayer
10
560.9102928
20
68.9586735
40
4.79533
50
200.0845956
51
216.9131696
0
ARC
8
bottom_labelLayer
10
560.0562697
20
68.3488601
40
3.7463284
50
217.3009548
51
261.7099061
0
ARC
8
bottom_labelLayer
10
560.452738
20
70.2407742
40
5.6768967
50
260.503327
51
270.2476665
0
ARC
8
bottom_labelLayer
10
560.5284101
20
69.8728799
40
5.3091957
50
269.4481723
51
284.7255678
0
ARC
8
bottom_labelLayer
10
560.9487078
20
68.3141297
40
3.6948226
50
284.5662365
51
322.6333811
0
ARC
8
bottom_labelLayer
10
559.9660261
20
69.0240721
40
4.9068055
50
323.0089383
51
342.6390379
0
ARC
8
bottom_labelLayer
10
557.1553651
20
69.9426755
40
7.8636184
50
342.3615739
51
353.7537633
0
ARC
8
bottom_labelLayer
10
553.0086855
20
70.442503
40
12.0401501
50
353.5363129
51
0.2014179
0
ARC
8
bottom_labelLayer
10
553.6440154
20
70.5430387
40
11.4048944
50
359.707565
51
7.8972647
0
ARC
8
bottom_labelLayer
10
557.8208067
20
71.1418189
40
7.1854706
50
7.7439939
51
20.0690126
0
ARC
8
bottom_labelLayer
10
560.1482804
20
71.9959126
40
4.7062386
50
20.0257152
51
37.4350527
0
ARC
8
bottom_labelLayer
10
560.9205186
20
72.5438814
40
3.7601158
50
37.9577669
51
80.4006213
0
ARC
8
bottom_labelLayer
10
560.4816824
20
70.5858469
40
5.7648909
50
79.3453294
51
90.3174903
0
ARC
8
bottom_labelLayer
10
560.4004258
20
70.911063
40
5.4398098
50
89.4806054
51
103.8804903
0
ARC
8
bottom_labelLayer
10
559.9433412
20
72.6516458
40
3.6404957
50
103.4685255
51
142.3118949
0
ARC
8
bottom_labelLayer
10
560.831945
20
72.0267151
40
4.7260033
50
142.9025635
51
162.3749659
0
ARC
8
bottom_labelLayer
10
563.6319608
20
71.0936173
40
7.6772234
50
162.0653194
51
173.1674771
0
ARC
8
bottom_labelLayer
10
567.9978962
20
70.5367702
40
12.0784457
50
173.0086237
51
180.2463914
0
LINE
8
bottom_labelLayer
10
578.363898
20
64.8117821
11
578.363898
21
63.0630516
0
LINE
8
bottom_labelLayer
10
571.5892886
20
67.2627586
11
571.5892886
21
76.240493
0
LINE
8
bottom_labelLayer
10
571.5892886
20
76.240493
11
569.4274722
21
76.240493
0
LINE
8
bottom_labelLayer
10
569.4274722
20
76.240493
11
569.4274722
21
77.3420555
0
LINE
8
bottom_labelLayer
10
569.4274722
20
77.3420555
11
571.5892886
21
78.2921532
0
LINE
8
bottom_labelLayer
10
571.5892886
20
78.2921532
11
572.5531558
21
81.5142235
0
LINE
8
bottom_labelLayer
10
572.5531558
20
81.5142235
11
573.8750308
21
81.5142235
0
LINE
8
bottom_labelLayer
10
573.8750308
20
81.5142235
11
573.8750308
21
78.0167625
0
LINE
8
bottom_labelLayer
10
573.8750308
20
78.0167625
11
578.2537417
21
78.0167625
0
LINE
8
bottom_labelLayer
10
578.2537417
20
78.0167625
11
578.2537417
21
76.240493
0
LINE
8
bottom_labelLayer
10
578.2537417
20
76.240493
11
573.8750308
21
76.240493
0
LINE
8
bottom_labelLayer
10
573.8750308
20
76.240493
11
573.8750308
21
67.3591453
0
ARC
8
bottom_labelLayer
10
576.3141423
20
72.0430921
40
7.5067171
50
269.8803663
51
278.3028136
0
ARC
8
bottom_labelLayer
10
576.3854692
20
71.4601468
40
6.9195951
50
278.4154311
51
279.0079313
0
ARC
8
bottom_labelLayer
10
575.5433544
20
76.839785
40
12.3647399
50
278.9589633
51
280.5104335
0
ARC
8
bottom_labelLayer
10
576.3459654
20
72.5332449
40
7.984049
50
280.4848221
51
282.6267935
0
ARC
8
bottom_labelLayer
10
577.0500114
20
69.4053572
40
4.7779073
50
282.5876596
51
285.5794593
0
ARC
8
bottom_labelLayer
10
577.4010756
20
68.1138272
40
3.4395535
50
285.7244885
51
286.2558218
0
ARC
8
bottom_labelLayer
10
577.4029138
20
65.0955865
40
2.2482635
50
287.988809
51
295.3048229
0
ARC
8
bottom_labelLayer
10
576.8606382
20
66.7362228
40
3.9761824
50
283.3069539
51
288.1197607
0
ARC
8
bottom_labelLayer
10
576.2878433
20
69.1255055
40
6.4331584
50
280.0069484
51
283.3735717
0
ARC
8
bottom_labelLayer
10
575.9045456
20
71.2056214
40
8.5482485
50
279.1862197
51
280.1142558
0
ARC
8
bottom_labelLayer
10
575.6692516
20
72.5438905
40
9.9069348
50
275.5260298
51
279.2939643
0
ARC
8
bottom_labelLayer
10
575.9343703
20
69.774689
40
7.1250731
50
270.8932382
51
275.5484007
0
ARC
8
bottom_labelLayer
10
575.9676774
20
68.5104171
40
5.8604513
50
270.0031489
51
270.7603337
0
ARC
8
bottom_labelLayer
10
575.8757634
20
68.6192788
40
5.9700257
50
253.7847938
51
270.8852475
0
ARC
8
bottom_labelLayer
10
575.1684739
20
66.2071525
40
3.4563516
50
190.3817679
51
253.877239
0
ARC
8
bottom_labelLayer
10
578.7735205
20
67.1818924
40
7.184687
50
179.3551022
51
192.8477568
0
ARC
8
bottom_labelLayer
10
578.4776608
20
67.3303576
40
4.6027201
50
179.6416414
51
189.7505899
0
ARC
8
bottom_labelLayer
10
576.8528211
20
67.0405487
40
2.9522887
50
189.5479739
51
205.787355
0
ARC
8
bottom_labelLayer
10
576.1850682
20
66.7326269
40
2.2171178
50
206.1294281
51
221.4084059
0
ARC
8
bottom_labelLayer
10
576.1101992
20
66.675818
40
2.1234015
50
221.5949283
51
262.3505042
0
ARC
8
bottom_labelLayer
10
576.2882684
20
67.5915249
40
3.0551506
50
261.3266322
51
270.1912873
0
LINE
8
bottom_labelLayer
10
588.3192691
20
64.8117821
11
588.3192691
21
63.0630516
0
LINE
8
bottom_labelLayer
10
581.5446597
20
67.2627586
11
581.5446597
21
76.240493
0
LINE
8
bottom_labelLayer
10
581.5446597
20
76.240493
11
579.3828433
21
76.240493
0
LINE
8
bottom_labelLayer
10
579.3828433
20
76.240493
11
579.3828433
21
77.3420555
0
LINE
8
bottom_labelLayer
10
579.3828433
20
77.3420555
11
581.5446597
21
78.2921532
0
LINE
8
bottom_labelLayer
10
581.5446597
20
78.2921532
11
582.5085269
21
81.5142235
0
LINE
8
bottom_labelLayer
10
582.5085269
20
81.5142235
11
583.8304019
21
81.5142235
0
LINE
8
bottom_labelLayer
10
583.8304019
20
81.5142235
11
583.8304019
21
78.0167625
0
LINE
8
bottom_labelLayer
10
583.8304019
20
78.0167625
11
588.2091128
21
78.0167625
0
LINE
8
bottom_labelLayer
10
588.2091128
20
78.0167625
11
588.2091128
21
76.240493
0
LINE
8
bottom_labelLayer
10
588.2091128
20
76.240493
11
583.8304019
21
76.240493
0
LINE
8
bottom_labelLayer
10
583.8304019
20
76.240493
11
583.8304019
21
67.3591453
0
ARC
8
bottom_labelLayer
10
586.2695134
20
72.0430921
40
7.5067171
50
269.8803663
51
278.3028136
0
ARC
8
bottom_labelLayer
10
586.3408403
20
71.4601468
40
6.9195951
50
278.4154311
51
279.0079313
0
ARC
8
bottom_labelLayer
10
585.4987255
20
76.839785
40
12.3647399
50
278.9589633
51
280.5104335
0
ARC
8
bottom_labelLayer
10
586.3013365
20
72.5332449
40
7.984049
50
280.4848221
51
282.6267935
0
ARC
8
bottom_labelLayer
10
587.0053824
20
69.4053572
40
4.7779073
50
282.5876596
51
285.5794593
0
ARC
8
bottom_labelLayer
10
587.3564466
20
68.1138272
40
3.4395535
50
285.7244885
51
286.2558218
0
ARC
8
bottom_labelLayer
10
587.3582849
20
65.0955865
40
2.2482635
50
287.988809
51
295.3048229
0
ARC
8
bottom_labelLayer
10
586.8160093
20
66.7362228
40
3.9761824
50
283.3069539
51
288.1197607
0
ARC
8
bottom_labelLayer
10
586.2432144
20
69.1255055
40
6.4331584
50
280.0069484
51
283.3735717
0
ARC
8
bottom_labelLayer
10
585.8599167
20
71.2056214
40
8.5482485
50
279.1862197
51
280.1142558
0
ARC
8
bottom_labelLayer
10
585.6246227
20
72.5438905
40
9.9069348
50
275.5260298
51
279.2939643
0
ARC
8
bottom_labelLayer
10
585.8897413
20
69.774689
40
7.1250731
50
270.8932382
51
275.5484007
0
ARC
8
bottom_labelLayer
10
585.9230485
20
68.5104171
40
5.8604513
50
270.0031489
51
270.7603337
0
ARC
8
bottom_labelLayer
10
585.8311345
20
68.6192788
40
5.9700257
50
253.7847938
51
270.8852475
0
ARC
8
bottom_labelLayer
10
585.123845
20
66.2071525
40
3.4563516
50
190.3817679
51
253.877239
0
ARC
8
bottom_labelLayer
10
588.7288916
20
67.1818924
40
7.184687
50
179.3551022
51
192.8477568
0
ARC
8
bottom_labelLayer
10
588.4330319
20
67.3303576
40
4.6027201
50
179.6416414
51
189.7505899
0
ARC
8
bottom_labelLayer
10
586.8081921
20
67.0405487
40
2.9522887
50
189.5479739
51
205.787355
0
ARC
8
bottom_labelLayer
10
586.1404393
20
66.7326269
40
2.2171178
50
206.1294281
51
221.4084059
0
ARC
8
bottom_labelLayer
10
586.0655702
20
66.675818
40
2.1234015
50
221.5949283
51
262.3505042
0
ARC
8
bottom_labelLayer
10
586.2436395
20
67.5915249
40
3.0551506
50
261.3266322
51
270.1912873
0
ARC
8
bottom_labelLayer
10
592.5542464
20
70.4052341
40
11.8067948
50
349.1761873
51
0.386259
0
ARC
8
bottom_labelLayer
10
596.529315
20
69.612796
40
7.7536996
50
330.2507057
51
349.4116448
0
ARC
8
bottom_labelLayer
10
597.7526307
20
68.976967
40
6.376346
50
318.1439841
51
329.7566087
0
ARC
8
bottom_labelLayer
10
597.9734336
20
68.8000157
40
6.0938339
50
278.8959174
51
317.9979142
0
ARC
8
bottom_labelLayer
10
597.4045334
20
71.5256629
40
8.8757817
50
269.7502935
51
279.8033291
0
ARC
8
bottom_labelLayer
10
597.31227
20
69.9899279
40
7.3401579
50
253.5436914
51
270.418247
0
ARC
8
bottom_labelLayer
10
597.067933
20
69.044769
40
6.3645874
50
238.8115611
51
253.2428288
0
ARC
8
bottom_labelLayer
10
596.9890728
20
68.8861824
40
6.1881007
50
207.7947003
51
238.6758017
0
ARC
8
bottom_labelLayer
10
598.120626
20
69.5792
40
7.5127429
50
205.6559991
51
208.446103
0
ARC
8
bottom_labelLayer
10
598.9921794
20
69.9423484
40
8.4557489
50
188.9102523
51
205.3171427
0
ARC
8
bottom_labelLayer
10
601.9294271
20
70.4398207
40
11.4346607
50
179.7744761
51
189.0932785
0
ARC
8
bottom_labelLayer
10
602.3626947
20
70.5652137
40
11.868112
50
169.2442969
51
180.3880774
0
ARC
8
bottom_labelLayer
10
598.3323775
20
71.361861
40
7.7599882
50
150.7111487
51
169.4695415
0
ARC
8
bottom_labelLayer
10
597.0457859
20
72.0225708
40
6.3148649
50
138.1759583
51
150.228728
0
ARC
8
bottom_labelLayer
10
596.831758
20
72.1868112
40
6.0458834
50
99.1759391
51
137.9832747
0
ARC
8
bottom_labelLayer
10
597.4208104
20
69.4146639
40
8.8775858
50
89.7326274
51
100.0759805
0
ARC
8
bottom_labelLayer
10
597.5385428
20
70.6118565
40
7.6806757
50
73.5222778
51
90.5692242
0
ARC
8
bottom_labelLayer
10
597.9889689
20
72.2483764
40
5.9836945
50
41.1445618
51
73.2133816
0
ARC
8
bottom_labelLayer
10
597.129139
20
71.5093648
40
7.117438
50
13.5014421
51
41.0703355
0
ARC
8
bottom_labelLayer
10
593.8072159
20
70.6400618
40
10.5507429
50
1.1277169
51
13.8800054
0
ARC
8
bottom_labelLayer
10
590.9455737
20
70.4867255
40
13.4151993
50
359.9919
51
1.5419455
0
ARC
8
bottom_labelLayer
10
604.4380333
20
70.4254287
40
11.5749713
50
179.7059693
51
187.9160723
0
ARC
8
bottom_labelLayer
10
600.192687
20
69.8155911
40
7.2861169
50
187.763932
51
200.0976863
0
ARC
8
bottom_labelLayer
10
597.8539451
20
68.9586735
40
4.79533
50
200.0845956
51
216.9131696
0
ARC
8
bottom_labelLayer
10
596.9999221
20
68.3488601
40
3.7463284
50
217.3009548
51
261.7099061
0
ARC
8
bottom_labelLayer
10
597.3963904
20
70.2407742
40
5.6768967
50
260.503327
51
270.2476665
0
ARC
8
bottom_labelLayer
10
597.4720624
20
69.8728799
40
5.3091957
50
269.4481723
51
284.7255678
0
ARC
8
bottom_labelLayer
10
597.8923601
20
68.3141297
40
3.6948226
50
284.5662365
51
322.6333811
0
ARC
8
bottom_labelLayer
10
596.9096784
20
69.0240721
40
4.9068055
50
323.0089383
51
342.6390379
0
ARC
8
bottom_labelLayer
10
594.0990175
20
69.9426755
40
7.8636184
50
342.3615739
51
353.7537633
0
ARC
8
bottom_labelLayer
10
589.9523378
20
70.442503
40
12.0401501
50
353.5363129
51
0.2014179
0
ARC
8
bottom_labelLayer
10
590.5876678
20
70.5430387
40
11.4048944
50
359.707565
51
7.8972647
0
ARC
8
bottom_labelLayer
10
594.764459
20
71.1418189
40
7.1854706
50
7.7439939
51
20.0690126
0
ARC
8
bottom_labelLayer
10
597.0919328
20
71.9959126
40
4.7062386
50
20.0257152
51
37.4350527
0
ARC
8
bottom_labelLayer
10
597.864171
20
72.5438814
40
3.7601158
50
37.9577669
51
80.4006213
0
ARC
8
bottom_labelLayer
10
597.4253347
20
70.5858469
40
5.7648909
50
79.3453294
51
90.3174903
0
ARC
8
bottom_labelLayer
10
597.3440782
20
70.911063
40
5.4398098
50
89.4806054
51
103.8804903
0
ARC
8
bottom_labelLayer
10
596.8869936
20
72.6516458
40
3.6404957
50
103.4685255
51
142.3118949
0
ARC
8
bottom_labelLayer
10
597.7755973
20
72.0267151
40
4.7260033
50
142.9025635
51
162.3749659
0
ARC
8
bottom_labelLayer
10
600.5756132
20
71.0936173
40
7.6772234
50
162.0653194
51
173.1674771
0
ARC
8
bottom_labelLayer
10
604.9415486
20
70.5367702
40
12.0784457
50
173.0086237
51
180.2463914
0
LINE
8
bottom_labelLayer
10
629.8894839
20
62.9253563
11
627.6037417
21
62.9253563
0
LINE
8
bottom_labelLayer
10
627.6037417
20
62.9253563
11
627.6037417
21
72.7430321
0
LINE
8
bottom_labelLayer
10
620.2645816
20
71.3523094
11
620.2645816
21
62.9253563
0
LINE
8
bottom_labelLayer
10
620.2645816
20
62.9253563
11
617.9788394
21
62.9253563
0
LINE
8
bottom_labelLayer
10
617.9788394
20
62.9253563
11
617.9788394
21
72.7430321
0
LINE
8
bottom_labelLayer
10
610.6534487
20
70.8428367
11
610.6534487
21
62.9253563
0
LINE
8
bottom_labelLayer
10
610.6534487
20
62.9253563
11
608.3677066
21
62.9253563
0
LINE
8
bottom_labelLayer
10
608.3677066
20
62.9253563
11
608.3677066
21
78.0167625
0
LINE
8
bottom_labelLayer
10
608.3677066
20
78.0167625
11
610.2265933
21
78.0167625
0
LINE
8
bottom_labelLayer
10
610.2265933
20
78.0167625
11
610.5983706
21
75.9513328
0
LINE
8
bottom_labelLayer
10
610.5983706
20
75.9513328
11
610.7085269
21
75.9513328
0
LINE
8
bottom_labelLayer
10
619.7964175
20
75.7310203
11
619.9065737
21
75.7310203
0
LINE
8
bottom_labelLayer
10
629.8894839
20
72.7705711
11
629.8894839
21
62.9253563
0
ARC
8
bottom_labelLayer
10
620.8607427
20
72.7789484
40
6.7430947
50
359.6948188
51
8.1471684
0
ARC
8
bottom_labelLayer
10
623.3444234
20
73.1465082
40
4.2324085
50
7.9864486
51
20.7949576
0
ARC
8
bottom_labelLayer
10
624.7173384
20
73.6724211
40
2.7622204
50
20.7071207
51
40.0217433
0
ARC
8
bottom_labelLayer
10
625.0185288
20
73.8694851
40
2.4052214
50
41.0408116
51
73.1792624
0
ARC
8
bottom_labelLayer
10
624.5827117
20
72.5513486
40
3.7932455
50
72.6395566
51
86.2567987
0
ARC
8
bottom_labelLayer
10
624.4430981
20
71.0448695
40
5.3057836
50
85.8144167
51
90.0685568
0
ARC
8
bottom_labelLayer
10
624.391801
20
70.4692481
40
5.8815729
50
89.5621261
51
101.2961648
0
ARC
8
bottom_labelLayer
10
623.9488211
20
72.5899491
40
3.7152319
50
101.0032351
51
121.7840357
0
ARC
8
bottom_labelLayer
10
623.612043
20
73.1911941
40
3.0269152
50
122.3597153
51
140.2884137
0
ARC
8
bottom_labelLayer
10
624.2179369
20
72.7469311
40
3.7771338
50
140.9765223
51
161.1699618
0
ARC
8
bottom_labelLayer
10
626.5004876
20
71.9346214
40
6.1997887
50
160.8731727
51
172.5272394
0
ARC
8
bottom_labelLayer
10
630.3145517
20
71.4078715
40
10.0499996
50
172.3776507
51
180.1829678
0
ARC
8
bottom_labelLayer
10
632.998614
20
71.3523235
40
12.7340324
50
179.8944684
51
180.0000636
0
ARC
8
bottom_labelLayer
10
611.2358403
20
72.7789484
40
6.7430947
50
359.6948188
51
8.1471684
0
ARC
8
bottom_labelLayer
10
613.719521
20
73.1465082
40
4.2324085
50
7.9864486
51
20.7949576
0
ARC
8
bottom_labelLayer
10
615.0924361
20
73.6724211
40
2.7622204
50
20.7071207
51
40.0217433
0
ARC
8
bottom_labelLayer
10
615.3998885
20
73.8738116
40
2.3976577
50
41.0610858
51
72.8993516
0
ARC
8
bottom_labelLayer
10
614.955817
20
72.5517642
40
3.7920047
50
72.3600908
51
85.956185
0
ARC
8
bottom_labelLayer
10
614.8054904
20
70.998126
40
5.3525283
50
85.5238198
51
90.0793497
0
ARC
8
bottom_labelLayer
10
614.7542167
20
70.6736882
40
5.6771305
50
89.5573343
51
101.4832193
0
ARC
8
bottom_labelLayer
10
614.3184769
20
72.7152256
40
3.5897701
50
101.1546397
51
123.0655722
0
ARC
8
bottom_labelLayer
10
614.0222852
20
73.2311781
40
2.9959611
50
123.7020508
51
142.3022047
0
ARC
8
bottom_labelLayer
10
614.7160957
20
72.7604881
40
3.8331124
50
143.0769717
51
161.3913832
0
ARC
8
bottom_labelLayer
10
617.512814
20
71.7727516
40
6.7989481
50
161.023451
51
171.4469034
0
ARC
8
bottom_labelLayer
10
622.1427261
20
71.0474922
40
11.4852689
50
171.3042
51
178.3501514
0
ARC
8
bottom_labelLayer
10
626.5672136
20
70.849875
40
15.9137665
50
178.0975885
51
180.0253404
0
ARC
8
bottom_labelLayer
10
614.5808839
20
73.6741956
40
4.4922714
50
117.1209591
51
149.5423684
0
ARC
8
bottom_labelLayer
10
615.0393576
20
72.8593164
40
5.4266795
50
93.8343271
51
117.5072154
0
ARC
8
bottom_labelLayer
10
615.1659906
20
71.7376786
40
6.5544758
50
89.9662196
51
94.2831513
0
ARC
8
bottom_labelLayer
10
615.2418613
20
70.8089681
40
7.4835315
50
77.5572265
51
90.551307
0
ARC
8
bottom_labelLayer
10
615.9362509
20
73.7956663
40
4.4175045
50
52.7027009
51
78.0053812
0
ARC
8
bottom_labelLayer
10
616.1836496
20
74.2559571
40
3.9022947
50
22.2097876
51
51.4970632
0
ARC
8
bottom_labelLayer
10
624.0472949
20
73.3579644
40
4.772522
50
119.4041751
51
150.1828878
0
ARC
8
bottom_labelLayer
10
624.5764305
20
72.5533432
40
5.7336575
50
118.2582859
51
120.063007
0
ARC
8
bottom_labelLayer
10
624.5750841
20
72.4942219
40
5.7851691
50
95.8635167
51
117.9693207
0
ARC
8
bottom_labelLayer
10
624.7708751
20
71.0785268
40
7.2136335
50
89.9196774
51
96.2617708
0
ARC
8
bottom_labelLayer
10
624.8337336
20
70.3469636
40
7.9453646
50
79.9360939
51
90.3803644
0
ARC
8
bottom_labelLayer
10
625.3631465
20
73.2141955
40
5.0297773
50
62.9723323
51
80.1665222
0
ARC
8
bottom_labelLayer
10
625.9165776
20
74.3496237
40
3.7669318
50
44.2289832
51
62.6229096
0
ARC
8
bottom_labelLayer
10
625.7519738
20
74.276905
40
3.9361029
50
19.5612045
51
43.3161292
0
ARC
8
bottom_labelLayer
10
623.3614043
20
73.3790051
40
6.489489
50
7.5041825
51
19.9645335
0
ARC
8
bottom_labelLayer
10
619.4056596
20
72.8234987
40
10.4839581
50
359.710745
51
7.6907287
0
ENDSEC
0
EOF