0
SECTION
2
HEADER
9
$INSUNITS
70
4
0
ENDSEC
0
SECTION
2
TABLES
0
TABLE
2
LTYPE
0
LTYPE
72
65
70
64
2
CONTINUOUS
3
______
73
0
40
0
0
ENDTAB
0
TABLE
2
LAYER
0
ENDTAB
0
ENDSEC
0
SECTION
2
ENTITIES
0
LINE
8
front_outsideCutPath
10
0
20
103
11
0
21
88.4375
0
LINE
8
front_outsideCutPath
10
0
20
88.4375
11
3
21
88.4375
0
LINE
8
front_outsideCutPath
10
3
20
88.4375
11
3
21
64.8125
0
LINE
8
front_outsideCutPath
10
3
20
64.8125
11
0
21
64.8125
0
LINE
8
front_outsideCutPath
10
0
20
64.8125
11
0
21
41.1875
0
LINE
8
front_outsideCutPath
10
0
20
41.1875
11
3
21
41.1875
0
LINE
8
front_outsideCutPath
10
3
20
41.1875
11
3
21
17.5625
0
LINE
8
front_outsideCutPath
10
3
20
17.5625
11
0
21
17.5625
0
LINE
8
front_outsideCutPath
10
0
20
17.5625
11
0
21
3
0
LINE
8
front_outsideCutPath
10
0
20
3
11
20.0625
21
3
0
LINE
8
front_outsideCutPath
10
20.0625
20
3
11
20.0625
21
6
0
LINE
8
front_outsideCutPath
10
20.0625
20
6
11
43.6875
21
6
0
LINE
8
front_outsideCutPath
10
43.6875
20
6
11
43.6875
21
3
0
LINE
8
front_outsideCutPath
10
43.6875
20
3
11
67.3125
21
3
0
LINE
8
front_outsideCutPath
10
67.3125
20
3
11
67.3125
21
6
0
LINE
8
front_outsideCutPath
10
67.3125
20
6
11
90.9375
21
6
0
LINE
8
front_outsideCutPath
10
90.9375
20
6
11
90.9375
21
3
0
LINE
8
front_outsideCutPath
10
90.9375
20
3
11
114.5625
21
3
0
LINE
8
front_outsideCutPath
10
114.5625
20
3
11
114.5625
21
6
0
LINE
8
front_outsideCutPath
10
114.5625
20
6
11
138.1875
21
6
0
LINE
8
front_outsideCutPath
10
138.1875
20
6
11
138.1875
21
3
0
LINE
8
front_outsideCutPath
10
138.1875
20
3
11
161.8125
21
3
0
LINE
8
front_outsideCutPath
10
161.8125
20
3
11
161.8125
21
6
0
LINE
8
front_outsideCutPath
10
161.8125
20
6
11
185.4375
21
6
0
LINE
8
front_outsideCutPath
10
185.4375
20
6
11
185.4375
21
3
0
LINE
8
front_outsideCutPath
10
185.4375
20
3
11
209.0625
21
3
0
LINE
8
front_outsideCutPath
10
209.0625
20
3
11
209.0625
21
6
0
LINE
8
front_outsideCutPath
10
209.0625
20
6
11
232.6875
21
6
0
LINE
8
front_outsideCutPath
10
232.6875
20
6
11
232.6875
21
3
0
LINE
8
front_outsideCutPath
10
232.6875
20
3
11
256.3125
21
3
0
LINE
8
front_outsideCutPath
10
256.3125
20
3
11
256.3125
21
6
0
LINE
8
front_outsideCutPath
10
256.3125
20
6
11
279.9375
21
6
0
LINE
8
front_outsideCutPath
10
279.9375
20
6
11
279.9375
21
3
0
LINE
8
front_outsideCutPath
10
279.9375
20
3
11
300
21
3
0
LINE
8
front_outsideCutPath
10
300
20
3
11
300
21
17.5625
0
LINE
8
front_outsideCutPath
10
300
20
17.5625
11
297
21
17.5625
0
LINE
8
front_outsideCutPath
10
297
20
17.5625
11
297
21
41.1875
0
LINE
8
front_outsideCutPath
10
297
20
41.1875
11
300
21
41.1875
0
LINE
8
front_outsideCutPath
10
300
20
41.1875
11
300
21
64.8125
0
LINE
8
front_outsideCutPath
10
300
20
64.8125
11
297
21
64.8125
0
LINE
8
front_outsideCutPath
10
297
20
64.8125
11
297
21
88.4375
0
LINE
8
front_outsideCutPath
10
297
20
88.4375
11
300
21
88.4375
0
LINE
8
front_outsideCutPath
10
300
20
88.4375
11
300
21
103
0
LINE
8
front_outsideCutPath
10
300
20
103
11
0
21
103
0
LINE
8
front_labelLayer
10
133.4326172
20
56.1496257
11
133.4326172
21
54.8898601
0
LINE
8
front_labelLayer
10
133.4326172
20
54.8898601
11
130.7080078
21
54.8898601
0
LINE
8
front_labelLayer
10
130.7080078
20
54.8898601
11
130.7080078
21
45.4465007
0
LINE
8
front_labelLayer
10
130.7080078
20
45.4465007
11
129.0869141
21
45.4465007
0
LINE
8
front_labelLayer
10
129.0869141
20
45.4465007
11
129.0869141
21
54.8898601
0
LINE
8
front_labelLayer
10
129.0869141
20
54.8898601
11
127.1728516
21
54.8898601
0
LINE
8
front_labelLayer
10
127.1728516
20
54.8898601
11
127.1728516
21
55.622282
0
LINE
8
front_labelLayer
10
127.1728516
20
55.622282
11
129.0869141
21
56.2082195
0
LINE
8
front_labelLayer
10
129.0869141
20
56.2082195
11
129.0869141
21
56.8039226
0
LINE
8
front_labelLayer
10
134.5263672
20
60.4074382
11
134.1064453
21
59.1086101
0
LINE
8
front_labelLayer
10
130.7080078
20
56.8429851
11
130.7080078
21
56.1496257
0
LINE
8
front_labelLayer
10
130.7080078
20
56.1496257
11
133.4326172
21
56.1496257
0
ARC
8
front_labelLayer
10
135.656643
20
56.8794516
40
6.5701631
50
167.5776019
51
180.6586728
0
ARC
8
front_labelLayer
10
132.5671365
20
57.5997452
40
3.3982616
50
141.7433952
51
168.2322111
0
ARC
8
front_labelLayer
10
132.0641015
20
57.8622911
40
2.8426424
50
98.25515
51
139.620332
0
ARC
8
front_labelLayer
10
132.5057745
20
55.821935
40
4.9273822
50
89.6697013
51
99.9314429
0
ARC
8
front_labelLayer
10
132.507007
20
55.5290279
40
5.2202779
50
81.5640782
51
89.7017613
0
ARC
8
front_labelLayer
10
132.1400146
20
52.9686645
40
7.8067887
50
75.9739836
51
81.6564925
0
ARC
8
front_labelLayer
10
131.5101857
20
50.3562892
40
10.4939481
50
73.2963798
51
76.0945964
0
ARC
8
front_labelLayer
10
131.6688282
20
51.6235867
40
7.8719472
50
71.9613356
51
76.5918517
0
ARC
8
front_labelLayer
10
132.2795384
20
54.2142902
40
5.2102479
50
76.5183435
51
83.0217048
0
ARC
8
front_labelLayer
10
132.4922705
20
55.9250858
40
3.4862815
50
83.076037
51
89.7927205
0
ARC
8
front_labelLayer
10
132.485268
20
57.2252028
40
2.1862297
50
89.4859359
51
103.4197073
0
ARC
8
front_labelLayer
10
132.2881641
20
57.9824617
40
1.4039934
50
102.7677419
51
144.3380185
0
ARC
8
front_labelLayer
10
132.6852455
20
57.7269769
40
1.875711
50
145.0688682
51
162.1801871
0
ARC
8
front_labelLayer
10
134.0467165
20
57.2689105
40
3.3121003
50
161.8437828
51
171.7846792
0
ARC
8
front_labelLayer
10
136.2672892
20
56.9353905
40
5.5575582
50
171.6528007
51
178.4383441
0
ARC
8
front_labelLayer
10
138.3619741
20
56.8460803
40
7.6539668
50
178.1973669
51
180.0231697
0
LINE
8
front_labelLayer
10
141.5478516
20
56.2277507
11
141.3232422
21
54.7238445
0
LINE
8
front_labelLayer
10
137.0068359
20
51.1886882
11
137.0068359
21
45.4465007
0
LINE
8
front_labelLayer
10
137.0068359
20
45.4465007
11
135.3857422
21
45.4465007
0
LINE
8
front_labelLayer
10
135.3857422
20
45.4465007
11
135.3857422
21
56.1496257
0
LINE
8
front_labelLayer
10
135.3857422
20
56.1496257
11
136.7236328
21
56.1496257
0
LINE
8
front_labelLayer
10
136.7236328
20
56.1496257
11
136.9091797
21
54.1672038
0
LINE
8
front_labelLayer
10
136.9091797
20
54.1672038
11
136.9873047
21
54.1672038
0
ARC
8
front_labelLayer
10
140.2851918
20
48.9027457
40
7.4422111
50
84.992291
51
90.1280853
0
ARC
8
front_labelLayer
10
140.4639204
20
50.9052003
40
5.4317999
50
78.4891881
51
85.0266001
0
ARC
8
front_labelLayer
10
139.7702105
20
47.7500366
40
7.1446416
50
77.4453847
51
81.6360114
0
ARC
8
front_labelLayer
10
140.081499
20
49.8956981
40
4.9765227
50
81.5884291
51
87.1916446
0
ARC
8
front_labelLayer
10
140.1491097
20
51.067975
40
3.8023544
50
87.3437351
51
89.9659832
0
ARC
8
front_labelLayer
10
140.1334016
20
52.0615111
40
2.8088752
50
89.6335332
51
137.0880824
0
ARC
8
front_labelLayer
10
140.8226335
20
51.2864292
40
3.8426618
50
135.6208614
51
138.8378137
0
ARC
8
front_labelLayer
10
140.7217405
20
51.3849151
40
3.7018901
50
138.9575794
51
174.5422254
0
ARC
8
front_labelLayer
10
141.9274083
20
51.1962675
40
4.9205781
50
173.6907914
51
180.0882543
0
ARC
8
front_labelLayer
10
141.7569048
20
51.4800333
40
5.4744836
50
139.4139283
51
150.6032915
0
ARC
8
front_labelLayer
10
140.7753331
20
52.3211361
40
4.1818363
50
124.2321574
51
139.4160923
0
ARC
8
front_labelLayer
10
140.2504874
20
53.1133863
40
3.2316024
50
89.6796684
51
124.4405593
0
ARC
8
front_labelLayer
10
144.4146558
20
50.7513789
40
8.3736204
50
349.1761945
51
0.3862568
0
ARC
8
front_labelLayer
10
147.233861
20
50.1893655
40
5.4990771
50
330.2507047
51
349.4116462
0
ARC
8
front_labelLayer
10
148.1014695
20
49.7384163
40
4.5222197
50
318.143971
51
329.7566252
0
ARC
8
front_labelLayer
10
148.2580578
20
49.6129266
40
4.3218687
50
278.8959183
51
317.9979086
0
ARC
8
front_labelLayer
10
147.8545846
20
51.5460018
40
6.2948732
50
269.7502763
51
279.8033236
0
ARC
8
front_labelLayer
10
147.7891484
20
50.4568395
40
5.2057899
50
253.5436962
51
270.418238
0
ARC
8
front_labelLayer
10
147.6158547
20
49.7865
40
4.5138811
50
238.8115441
51
253.242846
0
ARC
8
front_labelLayer
10
147.5599298
20
49.6740366
40
4.3887236
50
207.7946962
51
238.6757996
0
ARC
8
front_labelLayer
10
148.3624169
20
50.165521
40
5.328149
50
205.6559791
51
208.4461025
0
ARC
8
front_labelLayer
10
148.9805701
20
50.4230902
40
5.9969824
50
188.9102503
51
205.3171481
0
ARC
8
front_labelLayer
10
151.0637213
20
50.7759072
40
8.1096824
50
179.7744696
51
189.0932788
0
ARC
8
front_labelLayer
10
151.3710103
20
50.8648393
40
8.4171018
50
169.244298
51
180.388077
0
ARC
8
front_labelLayer
10
148.512632
20
51.4298361
40
5.5035418
50
150.7111564
51
169.4695354
0
ARC
8
front_labelLayer
10
147.6001567
20
51.8984219
40
4.4786339
50
138.175962
51
150.2287147
0
ARC
8
front_labelLayer
10
147.4483586
20
52.0149094
40
4.2878596
50
99.175935
51
137.9832793
0
ARC
8
front_labelLayer
10
147.8661284
20
50.0488414
40
6.2961655
50
89.7326434
51
100.0759878
0
ARC
8
front_labelLayer
10
147.9496243
20
50.8979214
40
5.4472856
50
73.5222665
51
90.5692191
0
ARC
8
front_labelLayer
10
148.2690752
20
52.0585698
40
4.2437569
50
41.1445735
51
73.2133783
0
ARC
8
front_labelLayer
10
147.6592716
20
51.5344521
40
5.047824
50
13.5014302
51
41.0703483
0
ARC
8
front_labelLayer
10
145.3032818
20
50.9179214
40
7.4828084
50
1.1277281
51
13.8799962
0
ARC
8
front_labelLayer
10
143.2740157
20
50.8091812
40
9.5140701
50
359.991856
51
1.5419431
0
ARC
8
front_labelLayer
10
152.8428699
20
50.7657001
40
8.2091889
50
179.7059623
51
187.9160759
0
ARC
8
front_labelLayer
10
149.8319964
20
50.3331922
40
5.1674586
50
187.7639332
51
200.097688
0
ARC
8
front_labelLayer
10
148.1733168
20
49.7254495
40
3.4009457
50
200.0845876
51
216.9131503
0
ARC
8
front_labelLayer
10
147.5676242
20
49.2929573
40
2.6569704
50
217.300954
51
261.7099073
0
ARC
8
front_labelLayer
10
147.8488056
20
50.6347234
40
4.0261509
50
260.5033133
51
270.2476938
0
ARC
8
front_labelLayer
10
147.9024761
20
50.3738215
40
3.765386
50
269.4481646
51
284.7255643
0
ARC
8
front_labelLayer
10
148.2005593
20
49.2683253
40
2.620441
50
284.566235
51
322.6333878
0
ARC
8
front_labelLayer
10
147.5036256
20
49.771829
40
3.4799996
50
323.0089266
51
342.6390508
0
ARC
8
front_labelLayer
10
145.5102406
20
50.4233247
40
5.5770392
50
342.3615704
51
353.7537499
0
ARC
8
front_labelLayer
10
142.5693152
20
50.7778121
40
8.539136
50
353.5363189
51
0.2014064
0
ARC
8
front_labelLayer
10
143.0199545
20
50.8491138
40
8.0885493
50
359.7075543
51
7.8972827
0
ARC
8
front_labelLayer
10
145.9821889
20
51.2737785
40
5.0960791
50
7.7440005
51
20.0690174
0
ARC
8
front_labelLayer
10
147.6328814
20
51.8795201
40
3.3377565
50
20.0257107
51
37.4350558
0
ARC
8
front_labelLayer
10
148.1805665
20
52.2681496
40
2.6667491
50
37.9577645
51
80.400615
0
ARC
8
front_labelLayer
10
147.8693358
20
50.8794661
40
4.0885816
50
79.345353
51
90.3174962
0
ARC
8
front_labelLayer
10
147.8117054
20
51.110135
40
3.8580087
50
89.4805853
51
103.8805168
0
ARC
8
front_labelLayer
10
147.4875331
20
52.3445778
40
2.5819124
50
103.4685218
51
142.3118841
0
ARC
8
front_labelLayer
10
148.1177462
20
51.9013664
40
3.3517727
50
142.9025565
51
162.3749748
0
ARC
8
front_labelLayer
10
150.103562
20
51.239596
40
5.4448258
50
162.0652994
51
173.1674849
0
ARC
8
front_labelLayer
10
153.1999835
20
50.844664
40
8.5662738
50
173.0086063
51
180.2463739
0
LINE
8
front_labelLayer
10
164.5751953
20
45.4465007
11
162.9541016
21
45.4465007
0
LINE
8
front_labelLayer
10
162.9541016
20
45.4465007
11
162.9541016
21
52.3703288
0
LINE
8
front_labelLayer
10
157.2509766
20
51.0617351
11
157.2509766
21
45.4465007
0
LINE
8
front_labelLayer
10
157.2509766
20
45.4465007
11
155.6298828
21
45.4465007
0
LINE
8
front_labelLayer
10
155.6298828
20
45.4465007
11
155.6298828
21
56.1496257
0
LINE
8
front_labelLayer
10
155.6298828
20
56.1496257
11
156.9482422
21
56.1496257
0
LINE
8
front_labelLayer
10
156.9482422
20
56.1496257
11
157.2119141
21
54.684782
0
LINE
8
front_labelLayer
10
157.2119141
20
54.684782
11
157.2900391
21
54.684782
0
LINE
8
front_labelLayer
10
164.5751953
20
52.4289226
11
164.5751953
21
45.4465007
0
ARC
8
front_labelLayer
10
158.3717418
20
52.3966075
40
4.5824351
50
359.6714273
51
8.6877183
0
ARC
8
front_labelLayer
10
160.0701359
20
52.6659621
40
2.8628588
50
8.4931172
51
22.6580015
0
ARC
8
front_labelLayer
10
160.9330198
20
53.02455
40
1.9284334
50
22.7024538
51
42.3419526
0
ARC
8
front_labelLayer
10
161.0300148
20
53.0681813
40
1.8276521
50
43.3791036
51
71.5386098
0
ARC
8
front_labelLayer
10
160.6673083
20
52.0546881
40
2.9039368
50
71.0827882
51
84.3690971
0
ARC
8
front_labelLayer
10
160.5044967
20
50.6704319
40
4.2975682
50
84.0197499
51
90.1510883
0
ARC
8
front_labelLayer
10
160.458338
20
50.0618099
40
4.9062988
50
89.5932978
51
100.3717905
0
ARC
8
front_labelLayer
10
160.1116138
20
51.8809551
40
3.0544855
50
100.1176335
51
118.1602552
0
ARC
8
front_labelLayer
10
159.7622031
20
52.5661214
40
2.2855721
50
118.5439463
51
139.1926966
0
ARC
8
front_labelLayer
10
160.0668693
20
52.3616865
40
2.6501508
50
140.1519123
51
160.3146543
0
ARC
8
front_labelLayer
10
161.9066472
20
51.6725826
40
4.6146256
50
159.9534297
51
171.3801135
0
ARC
8
front_labelLayer
10
164.9119838
20
51.1894866
40
7.6584691
50
171.1765914
51
178.3217568
0
ARC
8
front_labelLayer
10
167.6360595
20
51.066023
40
10.3850839
50
178.081036
51
180.023657
0
ARC
8
front_labelLayer
10
160.0631665
20
52.9284684
40
3.2825102
50
116.9442851
51
147.6525642
0
ARC
8
front_labelLayer
10
160.404898
20
52.3568868
40
3.9471559
50
115.8072486
51
117.6067736
0
ARC
8
front_labelLayer
10
160.5795056
20
51.9497359
40
4.3897594
50
94.3226737
51
115.5454453
0
ARC
8
front_labelLayer
10
160.6845747
20
51.0369154
40
5.3080244
50
89.957883
51
94.7109208
0
ARC
8
front_labelLayer
10
160.7280003
20
49.9446895
40
6.4003708
50
80.5585506
51
90.3538166
0
ARC
8
front_labelLayer
10
161.1279828
20
52.2615523
40
4.0493058
50
65.1094299
51
80.7638171
0
ARC
8
front_labelLayer
10
161.5955424
20
53.2971868
40
2.9131021
50
46.5584519
51
64.8782266
0
ARC
8
front_labelLayer
10
161.6329642
20
53.405067
40
2.8094344
50
19.3848834
51
45.5997059
0
ARC
8
front_labelLayer
10
160.0076147
20
52.7952087
40
4.5452039
50
6.9633634
51
19.8363272
0
ARC
8
front_labelLayer
10
157.5008422
20
52.4581685
40
7.0744135
50
359.763136
51
7.21157
0
LINE
8
front_labelLayer
10
172.8271484
20
46.7843913
11
172.8271484
21
45.544157
0
LINE
8
front_labelLayer
10
168.0224609
20
48.5226726
11
168.0224609
21
54.8898601
0
LINE
8
front_labelLayer
10
168.0224609
20
54.8898601
11
166.4892578
21
54.8898601
0
LINE
8
front_labelLayer
10
166.4892578
20
54.8898601
11
166.4892578
21
55.6711101
0
LINE
8
front_labelLayer
10
166.4892578
20
55.6711101
11
168.0224609
21
56.3449382
0
LINE
8
front_labelLayer
10
168.0224609
20
56.3449382
11
168.7060547
21
58.6300945
0
LINE
8
front_labelLayer
10
168.7060547
20
58.6300945
11
169.6435547
21
58.6300945
0
LINE
8
front_labelLayer
10
169.6435547
20
58.6300945
11
169.6435547
21
56.1496257
0
LINE
8
front_labelLayer
10
169.6435547
20
56.1496257
11
172.7490234
21
56.1496257
0
LINE
8
front_labelLayer
10
172.7490234
20
56.1496257
11
172.7490234
21
54.8898601
0
LINE
8
front_labelLayer
10
172.7490234
20
54.8898601
11
169.6435547
21
54.8898601
0
LINE
8
front_labelLayer
10
169.6435547
20
54.8898601
11
169.6435547
21
48.591032
0
ARC
8
front_labelLayer
10
171.3734233
20
51.9129617
40
5.3238944
50
269.8803417
51
278.3028182
0
ARC
8
front_labelLayer
10
171.4230699
20
51.5056089
40
4.9136514
50
278.4158959
51
279.0076561
0
ARC
8
front_labelLayer
10
170.8267197
20
55.3151576
40
8.7695902
50
278.9589695
51
280.5103918
0
ARC
8
front_labelLayer
10
171.3960558
20
52.2602916
40
5.6621249
50
280.4847522
51
282.6268451
0
ARC
8
front_labelLayer
10
171.8953454
20
50.0421168
40
3.3884538
50
282.5876165
51
285.5795336
0
ARC
8
front_labelLayer
10
172.1470048
20
49.1168484
40
2.429599
50
285.7231888
51
286.2566654
0
ARC
8
front_labelLayer
10
172.145595
20
46.9856817
40
1.5945246
50
287.9888406
51
295.3048016
0
ARC
8
front_labelLayer
10
171.7610004
20
48.1492631
40
2.8200086
50
283.3069861
51
288.1197567
0
ARC
8
front_labelLayer
10
171.3547466
20
49.8438763
40
4.5626327
50
280.0069961
51
283.3735389
0
ARC
8
front_labelLayer
10
171.0829387
20
51.3189605
40
6.0625179
50
279.1862135
51
280.1142603
0
ARC
8
front_labelLayer
10
170.9160585
20
52.2681084
40
7.0261467
50
275.5260122
51
279.2939725
0
ARC
8
front_labelLayer
10
171.1040783
20
50.304196
40
5.0532558
50
270.8932457
51
275.5483966
0
ARC
8
front_labelLayer
10
171.1276861
20
49.4070606
40
4.1558726
50
270.0033586
51
270.7606301
0
ARC
8
front_labelLayer
10
171.0625135
20
49.4847407
40
4.2340578
50
253.784789
51
270.8852547
0
ARC
8
front_labelLayer
10
170.5608903
20
47.7740159
40
2.4513133
50
190.3817699
51
253.8772374
0
ARC
8
front_labelLayer
10
173.1176617
20
48.465321
40
5.0955236
50
179.3551054
51
192.8477577
0
ARC
8
front_labelLayer
10
172.9078539
20
48.5706171
40
3.2643631
50
179.6416773
51
189.7505556
0
ARC
8
front_labelLayer
10
171.7554639
20
48.3650768
40
2.093823
50
189.5479676
51
205.7873396
0
ARC
8
front_labelLayer
10
171.2818781
20
48.1466914
40
1.5724225
50
206.1294051
51
221.408398
0
ARC
8
front_labelLayer
10
171.2287796
20
48.1064012
40
1.505957
50
221.5949091
51
262.3505289
0
ARC
8
front_labelLayer
10
171.355071
20
48.7558396
40
2.1667729
50
261.3266216
51
270.1912791
0
LINE
8
left_outsideCutPath
10
306
20
103
11
306
21
88.4375
0
LINE
8
left_outsideCutPath
10
306
20
88.4375
11
303
21
88.4375
0
LINE
8
left_outsideCutPath
10
303
20
88.4375
11
303
21
64.8125
0
LINE
8
left_outsideCutPath
10
303
20
64.8125
11
306
21
64.8125
0
LINE
8
left_outsideCutPath
10
306
20
64.8125
11
306
21
41.1875
0
LINE
8
left_outsideCutPath
10
306
20
41.1875
11
303
21
41.1875
0
LINE
8
left_outsideCutPath
10
303
20
41.1875
11
303
21
17.5625
0
LINE
8
left_outsideCutPath
10
303
20
17.5625
11
306
21
17.5625
0
LINE
8
left_outsideCutPath
10
306
20
17.5625
11
306
21
3
0
LINE
8
left_outsideCutPath
10
306
20
3
11
328.5625
21
3
0
LINE
8
left_outsideCutPath
10
328.5625
20
3
11
328.5625
21
6
0
LINE
8
left_outsideCutPath
10
328.5625
20
6
11
352.1875
21
6
0
LINE
8
left_outsideCutPath
10
352.1875
20
6
11
352.1875
21
3
0
LINE
8
left_outsideCutPath
10
352.1875
20
3
11
375.8125
21
3
0
LINE
8
left_outsideCutPath
10
375.8125
20
3
11
375.8125
21
6
0
LINE
8
left_outsideCutPath
10
375.8125
20
6
11
399.4375
21
6
0
LINE
8
left_outsideCutPath
10
399.4375
20
6
11
399.4375
21
3
0
LINE
8
left_outsideCutPath
10
399.4375
20
3
11
423.0625
21
3
0
LINE
8
left_outsideCutPath
10
423.0625
20
3
11
423.0625
21
6
0
LINE
8
left_outsideCutPath
10
423.0625
20
6
11
446.6875
21
6
0
LINE
8
left_outsideCutPath
10
446.6875
20
6
11
446.6875
21
3
0
LINE
8
left_outsideCutPath
10
446.6875
20
3
11
470.3125
21
3
0
LINE
8
left_outsideCutPath
10
470.3125
20
3
11
470.3125
21
6
0
LINE
8
left_outsideCutPath
10
470.3125
20
6
11
493.9375
21
6
0
LINE
8
left_outsideCutPath
10
493.9375
20
6
11
493.9375
21
3
0
LINE
8
left_outsideCutPath
10
493.9375
20
3
11
517.5625
21
3
0
LINE
8
left_outsideCutPath
10
517.5625
20
3
11
517.5625
21
6
0
LINE
8
left_outsideCutPath
10
517.5625
20
6
11
541.1875
21
6
0
LINE
8
left_outsideCutPath
10
541.1875
20
6
11
541.1875
21
3
0
LINE
8
left_outsideCutPath
10
541.1875
20
3
11
564.8125
21
3
0
LINE
8
left_outsideCutPath
10
564.8125
20
3
11
564.8125
21
6
0
LINE
8
left_outsideCutPath
10
564.8125
20
6
11
588.4375
21
6
0
LINE
8
left_outsideCutPath
10
588.4375
20
6
11
588.4375
21
3
0
LINE
8
left_outsideCutPath
10
588.4375
20
3
11
612.0625
21
3
0
LINE
8
left_outsideCutPath
10
612.0625
20
3
11
612.0625
21
6
0
LINE
8
left_outsideCutPath
10
612.0625
20
6
11
635.6875
21
6
0
LINE
8
left_outsideCutPath
10
635.6875
20
6
11
635.6875
21
3
0
LINE
8
left_outsideCutPath
10
635.6875
20
3
11
659.3125
21
3
0
LINE
8
left_outsideCutPath
10
659.3125
20
3
11
659.3125
21
6
0
LINE
8
left_outsideCutPath
10
659.3125
20
6
11
682.9375
21
6
0
LINE
8
left_outsideCutPath
10
682.9375
20
6
11
682.9375
21
3
0
LINE
8
left_outsideCutPath
10
682.9375
20
3
11
706.5625
21
3
0
LINE
8
left_outsideCutPath
10
706.5625
20
3
11
706.5625
21
6
0
LINE
8
left_outsideCutPath
10
706.5625
20
6
11
730.1875
21
6
0
LINE
8
left_outsideCutPath
10
730.1875
20
6
11
730.1875
21
3
0
LINE
8
left_outsideCutPath
10
730.1875
20
3
11
753.8125
21
3
0
LINE
8
left_outsideCutPath
10
753.8125
20
3
11
753.8125
21
6
0
LINE
8
left_outsideCutPath
10
753.8125
20
6
11
777.4375
21
6
0
LINE
8
left_outsideCutPath
10
777.4375
20
6
11
777.4375
21
3
0
LINE
8
left_outsideCutPath
10
777.4375
20
3
11
800
21
3
0
LINE
8
left_outsideCutPath
10
800
20
3
11
800
21
17.5625
0
LINE
8
left_outsideCutPath
10
800
20
17.5625
11
803
21
17.5625
0
LINE
8
left_outsideCutPath
10
803
20
17.5625
11
803
21
41.1875
0
LINE
8
left_outsideCutPath
10
803
20
41.1875
11
800
21
41.1875
0
LINE
8
left_outsideCutPath
10
800
20
41.1875
11
800
21
64.8125
0
LINE
8
left_outsideCutPath
10
800
20
64.8125
11
803
21
64.8125
0
LINE
8
left_outsideCutPath
10
803
20
64.8125
11
803
21
88.4375
0
LINE
8
left_outsideCutPath
10
803
20
88.4375
11
800
21
88.4375
0
LINE
8
left_outsideCutPath
10
800
20
88.4375
11
800
21
103
0
LINE
8
left_outsideCutPath
10
800
20
103
11
306
21
103
0
LINE
8
left_labelLayer
10
540.6318359
20
60.6418132
11
540.6318359
21
45.4465007
0
LINE
8
left_labelLayer
10
540.6318359
20
45.4465007
11
539.0107422
21
45.4465007
0
LINE
8
left_labelLayer
10
539.0107422
20
45.4465007
11
539.0107422
21
60.6418132
0
LINE
8
left_labelLayer
10
539.0107422
20
60.6418132
11
540.6318359
21
60.6418132
0
LINE
8
left_labelLayer
10
552.5263672
20
51.5304851
11
552.5263672
21
50.5050945
0
LINE
8
left_labelLayer
10
552.5263672
20
50.5050945
11
545.1533203
21
50.5050945
0
LINE
8
left_labelLayer
10
552.0673828
20
47.3898601
11
552.0673828
21
45.9445476
0
LINE
8
left_labelLayer
10
545.1923828
20
51.8234538
11
550.7880859
21
51.8234538
0
ARC
8
left_labelLayer
10
548.5375163
20
51.5504518
40
6.2994891
50
256.0087864
51
270.4848217
0
ARC
8
left_labelLayer
10
548.0787904
20
49.7695846
40
4.4605713
50
223.5465745
51
256.1956946
0
ARC
8
left_labelLayer
10
548.331848
20
49.9535108
40
4.7708826
50
194.0877272
51
223.0538182
0
ARC
8
left_labelLayer
10
550.6505483
20
50.5875915
40
7.1743644
50
181.3574552
51
194.4920046
0
ARC
8
left_labelLayer
10
552.7337444
20
50.7083549
40
9.2601118
50
179.988753
51
181.7991074
0
ARC
8
left_labelLayer
10
551.9857631
20
50.7672736
40
8.5123218
50
168.9539202
51
180.3843452
0
ARC
8
left_labelLayer
10
549.2056782
20
51.3333483
40
5.6753298
50
149.4070939
51
169.185387
0
ARC
8
left_labelLayer
10
548.4311046
20
51.7425996
40
4.8004737
50
140.1056143
51
148.906731
0
ARC
8
left_labelLayer
10
547.9552283
20
52.1813347
40
4.1540931
50
92.4762693
51
140.5386367
0
ARC
8
left_labelLayer
10
548.1672793
20
50.6142695
40
5.7306699
50
89.9638154
51
93.9176162
0
ARC
8
left_labelLayer
10
548.2178771
20
51.4063084
40
4.9388532
50
74.2125965
51
90.5450096
0
ARC
8
left_labelLayer
10
548.5272118
20
52.5460349
40
3.7579798
50
41.2064721
51
74.0232652
0
ARC
8
left_labelLayer
10
547.9413907
20
52.0390501
40
4.5327076
50
11.5994275
51
41.1496059
0
ARC
8
left_labelLayer
10
545.9285231
20
51.5748451
40
6.5979931
50
359.6147824
51
12.033632
0
ARC
8
left_labelLayer
10
551.6585018
20
50.6350784
40
6.50648
50
181.1447089
51
190.800699
0
ARC
8
left_labelLayer
10
549.3630811
20
50.182357
40
4.1669111
50
190.6005651
51
206.0275216
0
ARC
8
left_labelLayer
10
548.3475131
20
49.7022419
40
3.0436958
50
206.2950304
51
222.5557993
0
ARC
8
left_labelLayer
10
548.2575252
20
49.6551265
40
2.9456606
50
223.0645132
51
258.1401291
0
ARC
8
left_labelLayer
10
548.6157671
20
51.1302218
40
4.4631448
50
257.5311717
51
270.4319476
0
ARC
8
left_labelLayer
10
548.6197666
20
55.2290413
40
8.5618888
50
270.1983999
51
292.2090433
0
ARC
8
left_labelLayer
10
548.2083414
20
56.410503
40
9.8114322
50
291.8255178
51
293.1612948
0
ARC
8
left_labelLayer
10
548.1889046
20
54.8703356
40
9.7320237
50
287.9023108
51
293.4861519
0
ARC
8
left_labelLayer
10
548.8948818
20
52.6921442
40
7.4422823
50
281.9936008
51
287.8851423
0
ARC
8
left_labelLayer
10
549.0659954
20
52.0771114
40
6.8052323
50
275.9054125
51
281.6604196
0
ARC
8
left_labelLayer
10
548.7234705
20
55.2742317
40
10.0206339
50
271.9119633
51
275.9726911
0
ARC
8
left_labelLayer
10
548.5984511
20
58.4584667
40
13.2072806
50
269.9668962
51
271.9931374
0
ARC
8
left_labelLayer
10
548.1202599
20
51.7921135
40
3.1955542
50
89.4422423
51
106.2089652
0
ARC
8
left_labelLayer
10
547.928013
20
52.4930778
40
2.4688141
50
106.4657148
51
137.9176368
0
ARC
8
left_labelLayer
10
548.4791952
20
52.0090489
40
3.2023031
50
138.0994865
51
160.5866232
0
ARC
8
left_labelLayer
10
549.8960088
20
51.487829
40
4.7118531
50
160.335354
51
172.5315141
0
ARC
8
left_labelLayer
10
551.291158
20
51.2642972
40
6.1243541
50
172.1545568
51
174.7615716
0
ARC
8
left_labelLayer
10
545.2640618
20
51.8548335
40
5.5241133
50
359.6745303
51
8.922462
0
ARC
8
left_labelLayer
10
547.2379464
20
52.1764473
40
3.5242521
50
8.7342472
51
23.2771776
0
ARC
8
left_labelLayer
10
548.1750418
20
52.5698155
40
2.5079976
50
23.4821335
51
39.7072171
0
ARC
8
left_labelLayer
10
548.4052195
20
52.7420632
40
2.220922
50
40.0822985
51
80.624323
0
ARC
8
left_labelLayer
10
548.1682893
20
51.655985
40
3.3315743
50
79.646833
51
90.291024
0
LINE
8
left_labelLayer
10
560.1142578
20
56.1496257
11
560.1142578
21
54.8898601
0
LINE
8
left_labelLayer
10
560.1142578
20
54.8898601
11
557.3896484
21
54.8898601
0
LINE
8
left_labelLayer
10
557.3896484
20
54.8898601
11
557.3896484
21
45.4465007
0
LINE
8
left_labelLayer
10
557.3896484
20
45.4465007
11
555.7685547
21
45.4465007
0
LINE
8
left_labelLayer
10
555.7685547
20
45.4465007
11
555.7685547
21
54.8898601
0
LINE
8
left_labelLayer
10
555.7685547
20
54.8898601
11
553.8544922
21
54.8898601
0
LINE
8
left_labelLayer
10
553.8544922
20
54.8898601
11
553.8544922
21
55.622282
0
LINE
8
left_labelLayer
10
553.8544922
20
55.622282
11
555.7685547
21
56.2082195
0
LINE
8
left_labelLayer
10
555.7685547
20
56.2082195
11
555.7685547
21
56.8039226
0
LINE
8
left_labelLayer
10
561.2080078
20
60.4074382
11
560.7880859
21
59.1086101
0
LINE
8
left_labelLayer
10
557.3896484
20
56.8429851
11
557.3896484
21
56.1496257
0
LINE
8
left_labelLayer
10
557.3896484
20
56.1496257
11
560.1142578
21
56.1496257
0
ARC
8
left_labelLayer
10
562.3382836
20
56.8794516
40
6.5701631
50
167.5776019
51
180.6586728
0
ARC
8
left_labelLayer
10
559.2487771
20
57.5997452
40
3.3982616
50
141.7433952
51
168.2322111
0
ARC
8
left_labelLayer
10
558.7457421
20
57.8622911
40
2.8426424
50
98.25515
51
139.620332
0
ARC
8
left_labelLayer
10
559.1874151
20
55.821935
40
4.9273822
50
89.6697013
51
99.9314429
0
ARC
8
left_labelLayer
10
559.1886476
20
55.5290279
40
5.2202779
50
81.5640782
51
89.7017613
0
ARC
8
left_labelLayer
10
558.8216552
20
52.9686645
40
7.8067887
50
75.9739836
51
81.6564925
0
ARC
8
left_labelLayer
10
558.1918263
20
50.3562892
40
10.4939481
50
73.2963798
51
76.0945964
0
ARC
8
left_labelLayer
10
558.3504689
20
51.6235867
40
7.8719472
50
71.9613356
51
76.5918517
0
ARC
8
left_labelLayer
10
558.961179
20
54.2142902
40
5.2102479
50
76.5183435
51
83.0217048
0
ARC
8
left_labelLayer
10
559.1739111
20
55.9250858
40
3.4862815
50
83.076037
51
89.7927205
0
ARC
8
left_labelLayer
10
559.1669086
20
57.2252028
40
2.1862297
50
89.4859359
51
103.4197073
0
ARC
8
left_labelLayer
10
558.9698048
20
57.9824617
40
1.4039934
50
102.7677419
51
144.3380185
0
ARC
8
left_labelLayer
10
559.3668861
20
57.7269769
40
1.875711
50
145.0688682
51
162.1801871
0
ARC
8
left_labelLayer
10
560.7283572
20
57.2689105
40
3.3121003
50
161.8437828
51
171.7846792
0
ARC
8
left_labelLayer
10
562.9489299
20
56.9353905
40
5.5575582
50
171.6528007
51
178.4383441
0
ARC
8
left_labelLayer
10
565.0436147
20
56.8460803
40
7.6539668
50
178.1973669
51
180.0231697
0
LINE
8
left_labelLayer
10
566.9892578
20
46.7843913
11
566.9892578
21
45.544157
0
LINE
8
left_labelLayer
10
562.1845703
20
48.5226726
11
562.1845703
21
54.8898601
0
LINE
8
left_labelLayer
10
562.1845703
20
54.8898601
11
560.6513672
21
54.8898601
0
LINE
8
left_labelLayer
10
560.6513672
20
54.8898601
11
560.6513672
21
55.6711101
0
LINE
8
left_labelLayer
10
560.6513672
20
55.6711101
11
562.1845703
21
56.3449382
0
LINE
8
left_labelLayer
10
562.1845703
20
56.3449382
11
562.8681641
21
58.6300945
0
LINE
8
left_labelLayer
10
562.8681641
20
58.6300945
11
563.8056641
21
58.6300945
0
LINE
8
left_labelLayer
10
563.8056641
20
58.6300945
11
563.8056641
21
56.1496257
0
LINE
8
left_labelLayer
10
563.8056641
20
56.1496257
11
566.9111328
21
56.1496257
0
LINE
8
left_labelLayer
10
566.9111328
20
56.1496257
11
566.9111328
21
54.8898601
0
LINE
8
left_labelLayer
10
566.9111328
20
54.8898601
11
563.8056641
21
54.8898601
0
LINE
8
left_labelLayer
10
563.8056641
20
54.8898601
11
563.8056641
21
48.591032
0
ARC
8
left_labelLayer
10
565.5355326
20
51.9129617
40
5.3238944
50
269.8803417
51
278.3028182
0
ARC
8
left_labelLayer
10
565.5851793
20
51.5056089
40
4.9136514
50
278.4158959
51
279.0076561
0
ARC
8
left_labelLayer
10
564.9888291
20
55.3151576
40
8.7695902
50
278.9589695
51
280.5103918
0
ARC
8
left_labelLayer
10
565.5581652
20
52.2602916
40
5.6621249
50
280.4847522
51
282.6268451
0
ARC
8
left_labelLayer
10
566.0574548
20
50.0421168
40
3.3884538
50
282.5876165
51
285.5795336
0
ARC
8
left_labelLayer
10
566.3091142
20
49.1168484
40
2.429599
50
285.7231888
51
286.2566654
0
ARC
8
left_labelLayer
10
566.3077044
20
46.9856817
40
1.5945246
50
287.9888406
51
295.3048016
0
ARC
8
left_labelLayer
10
565.9231098
20
48.1492631
40
2.8200086
50
283.3069861
51
288.1197567
0
ARC
8
left_labelLayer
10
565.516856
20
49.8438763
40
4.5626327
50
280.0069961
51
283.3735389
0
ARC
8
left_labelLayer
10
565.2450481
20
51.3189605
40
6.0625179
50
279.1862135
51
280.1142603
0
ARC
8
left_labelLayer
10
565.0781679
20
52.2681084
40
7.0261467
50
275.5260122
51
279.2939725
0
ARC
8
left_labelLayer
10
565.2661877
20
50.304196
40
5.0532558
50
270.8932457
51
275.5483966
0
ARC
8
left_labelLayer
10
565.2897955
20
49.4070606
40
4.1558726
50
270.0033586
51
270.7606301
0
ARC
8
left_labelLayer
10
565.2246229
20
49.4847407
40
4.2340578
50
253.784789
51
270.8852547
0
ARC
8
left_labelLayer
10
564.7229997
20
47.7740159
40
2.4513133
50
190.3817699
51
253.8772374
0
ARC
8
left_labelLayer
10
567.2797711
20
48.465321
40
5.0955236
50
179.3551054
51
192.8477577
0
ARC
8
left_labelLayer
10
567.0699633
20
48.5706171
40
3.2643631
50
179.6416773
51
189.7505556
0
ARC
8
left_labelLayer
10
565.9175733
20
48.3650768
40
2.093823
50
189.5479676
51
205.7873396
0
ARC
8
left_labelLayer
10
565.4439874
20
48.1466914
40
1.5724225
50
206.1294051
51
221.408398
0
ARC
8
left_labelLayer
10
565.390889
20
48.1064012
40
1.505957
50
221.5949091
51
262.3505289
0
ARC
8
left_labelLayer
10
565.5171804
20
48.7558396
40
2.1667729
50
261.3266216
51
270.1912791
0
LINE
8
back_outsideCutPath
10
0
20
206
11
0
21
191.4375
0
LINE
8
back_outsideCutPath
10
0
20
191.4375
11
3
21
191.4375
0
LINE
8
back_outsideCutPath
10
3
20
191.4375
11
3
21
167.8125
0
LINE
8
back_outsideCutPath
10
3
20
167.8125
11
0
21
167.8125
0
LINE
8
back_outsideCutPath
10
0
20
167.8125
11
0
21
144.1875
0
LINE
8
back_outsideCutPath
10
0
20
144.1875
11
3
21
144.1875
0
LINE
8
back_outsideCutPath
10
3
20
144.1875
11
3
21
120.5625
0
LINE
8
back_outsideCutPath
10
3
20
120.5625
11
0
21
120.5625
0
LINE
8
back_outsideCutPath
10
0
20
120.5625
11
0
21
106
0
LINE
8
back_outsideCutPath
10
0
20
106
11
20.0625
21
106
0
LINE
8
back_outsideCutPath
10
20.0625
20
106
11
20.0625
21
109
0
LINE
8
back_outsideCutPath
10
20.0625
20
109
11
43.6875
21
109
0
LINE
8
back_outsideCutPath
10
43.6875
20
109
11
43.6875
21
106
0
LINE
8
back_outsideCutPath
10
43.6875
20
106
11
67.3125
21
106
0
LINE
8
back_outsideCutPath
10
67.3125
20
106
11
67.3125
21
109
0
LINE
8
back_outsideCutPath
10
67.3125
20
109
11
90.9375
21
109
0
LINE
8
back_outsideCutPath
10
90.9375
20
109
11
90.9375
21
106
0
LINE
8
back_outsideCutPath
10
90.9375
20
106
11
114.5625
21
106
0
LINE
8
back_outsideCutPath
10
114.5625
20
106
11
114.5625
21
109
0
LINE
8
back_outsideCutPath
10
114.5625
20
109
11
138.1875
21
109
0
LINE
8
back_outsideCutPath
10
138.1875
20
109
11
138.1875
21
106
0
LINE
8
back_outsideCutPath
10
138.1875
20
106
11
161.8125
21
106
0
LINE
8
back_outsideCutPath
10
161.8125
20
106
11
161.8125
21
109
0
LINE
8
back_outsideCutPath
10
161.8125
20
109
11
185.4375
21
109
0
LINE
8
back_outsideCutPath
10
185.4375
20
109
11
185.4375
21
106
0
LINE
8
back_outsideCutPath
10
185.4375
20
106
11
209.0625
21
106
0
LINE
8
back_outsideCutPath
10
209.0625
20
106
11
209.0625
21
109
0
LINE
8
back_outsideCutPath
10
209.0625
20
109
11
232.6875
21
109
0
LINE
8
back_outsideCutPath
10
232.6875
20
109
11
232.6875
21
106
0
LINE
8
back_outsideCutPath
10
232.6875
20
106
11
256.3125
21
106
0
LINE
8
back_outsideCutPath
10
256.3125
20
106
11
256.3125
21
109
0
LINE
8
back_outsideCutPath
10
256.3125
20
109
11
279.9375
21
109
0
LINE
8
back_outsideCutPath
10
279.9375
20
109
11
279.9375
21
106
0
LINE
8
back_outsideCutPath
10
279.9375
20
106
11
300
21
106
0
LINE
8
back_outsideCutPath
10
300
20
106
11
300
21
120.5625
0
LINE
8
back_outsideCutPath
10
300
20
120.5625
11
297
21
120.5625
0
LINE
8
back_outsideCutPath
10
297
20
120.5625
11
297
21
144.1875
0
LINE
8
back_outsideCutPath
10
297
20
144.1875
11
300
21
144.1875
0
LINE
8
back_outsideCutPath
10
300
20
144.1875
11
300
21
167.8125
0
LINE
8
back_outsideCutPath
10
300
20
167.8125
11
297
21
167.8125
0
LINE
8
back_outsideCutPath
10
297
20
167.8125
11
297
21
191.4375
0
LINE
8
back_outsideCutPath
10
297
20
191.4375
11
300
21
191.4375
0
LINE
8
back_outsideCutPath
10
300
20
191.4375
11
300
21
206
0
LINE
8
back_outsideCutPath
10
300
20
206
11
0
21
206
0
LINE
8
back_labelLayer
10
130.8886719
20
149.8770634
11
130.7714844
21
149.8770634
0
LINE
8
back_labelLayer
10
130.7714844
20
149.8770634
11
130.4296875
21
148.5001103
0
LINE
8
back_labelLayer
10
130.4296875
20
148.5001103
11
129.2675781
21
148.5001103
0
LINE
8
back_labelLayer
10
129.2675781
20
148.5001103
11
129.2675781
21
163.6954228
0
LINE
8
back_labelLayer
10
129.2675781
20
163.6954228
11
130.8886719
21
163.6954228
0
LINE
8
back_labelLayer
10
130.8886719
20
163.6954228
11
130.8886719
21
160.0040166
0
LINE
8
back_labelLayer
10
130.8105469
20
157.7774541
11
130.8886719
21
157.7774541
0
ARC
8
back_labelLayer
10
134.2966775
20
154.4246287
40
4.9546266
50
74.2393364
51
90.5623784
0
ARC
8
back_labelLayer
10
134.6242936
20
155.6265047
40
3.7089652
50
38.563135
51
74.0670337
0
ARC
8
back_labelLayer
10
133.7811887
20
154.9709425
40
4.776887
50
16.4709282
51
38.4075249
0
ARC
8
back_labelLayer
10
131.3523335
20
154.2093236
40
7.3221308
50
5.1338483
51
16.7973468
0
ARC
8
back_labelLayer
10
128.2860763
20
153.8836053
40
10.4053536
50
359.8779407
51
5.4093585
0
ARC
8
back_labelLayer
10
129.1867078
20
153.8053634
40
9.5048639
50
350.6562881
51
0.3380252
0
ARC
8
back_labelLayer
10
132.5002613
20
153.2417664
40
6.1437972
50
335.8306022
51
350.8254751
0
ARC
8
back_labelLayer
10
133.9578448
20
152.6126521
40
4.5564622
50
321.3161305
51
335.5436301
0
ARC
8
back_labelLayer
10
134.5150752
20
152.1585923
40
3.8376919
50
274.0640061
51
321.4081015
0
ARC
8
back_labelLayer
10
134.2554747
20
153.8030045
40
5.4982118
50
269.9225965
51
275.5481661
0
ARC
8
back_labelLayer
10
134.2207101
20
153.2218541
40
4.9171322
50
255.7755416
51
270.3185374
0
ARC
8
back_labelLayer
10
134.0803944
20
152.5984365
40
4.2783843
50
245.9801859
51
255.5455587
0
ARC
8
back_labelLayer
10
133.8086003
20
151.9663728
40
3.5904312
50
215.5850261
51
245.8361642
0
ARC
8
back_labelLayer
10
97.0900958
20
159.9754433
40
33.7985882
50
358.1123236
51
0.0484378
0
ARC
8
back_labelLayer
10
106.4970011
20
159.6596271
40
24.3863854
50
355.7238501
51
358.1259023
0
ARC
8
back_labelLayer
10
110.6558653
20
159.3737435
40
20.2177974
50
355.4715177
51
355.6529673
0
ARC
8
back_labelLayer
10
133.9119411
20
155.6692469
40
3.6857421
50
95.1835136
51
145.1108959
0
ARC
8
back_labelLayer
10
134.2359053
20
153.8423621
40
5.5366677
50
89.8743539
51
96.8145168
0
ARC
8
back_labelLayer
10
133.9797325
20
153.4663119
40
4.5554093
50
89.5731223
51
100.7324143
0
ARC
8
back_labelLayer
10
133.6425047
20
155.1701038
40
2.8186562
50
100.4469271
51
119.6700806
0
ARC
8
back_labelLayer
10
133.3297942
20
155.7547523
40
2.1559401
50
120.1402874
51
142.4248999
0
ARC
8
back_labelLayer
10
133.847151
20
155.4125044
40
2.7750293
50
143.3382417
51
161.2559929
0
ARC
8
back_labelLayer
10
136.0106157
20
154.6444
40
5.070677
50
160.8926193
51
171.2334482
0
ARC
8
back_labelLayer
10
139.6223319
20
154.061745
40
8.7290381
50
171.0667895
51
177.8456849
0
ARC
8
back_labelLayer
10
143.3782991
20
153.870715
40
12.4896305
50
177.6176676
51
180.042556
0
ARC
8
back_labelLayer
10
141.6071483
20
153.8195844
40
10.7185581
50
179.7762696
51
185.7075172
0
ARC
8
back_labelLayer
10
137.3811629
20
153.3841575
40
6.4702325
50
185.5924625
51
194.2050865
0
ARC
8
back_labelLayer
10
134.6740959
20
152.6815766
40
3.6735677
50
193.9430285
51
208.0218386
0
ARC
8
back_labelLayer
10
133.5788007
20
152.1243686
40
2.4449999
50
208.5536273
51
217.560509
0
ARC
8
back_labelLayer
10
133.4895636
20
152.087254
40
2.3517682
50
218.1690497
51
253.8047105
0
ARC
8
back_labelLayer
10
133.9257689
20
153.4321185
40
3.7651815
50
253.1382373
51
266.8483309
0
ARC
8
back_labelLayer
10
134.04809
20
154.8746562
40
5.2124386
50
266.3775722
51
270.0510514
0
ARC
8
back_labelLayer
10
134.0873142
20
152.8936739
40
3.2316392
50
269.3869014
51
285.8630523
0
ARC
8
back_labelLayer
10
134.3274047
20
152.0259509
40
2.3313432
50
286.0162899
51
326.849735
0
ARC
8
back_labelLayer
10
133.1686045
20
152.7936133
40
3.7213332
50
326.7105084
51
343.6661789
0
ARC
8
back_labelLayer
10
130.9993961
20
153.4564532
40
5.9894605
50
343.4171354
51
353.6369032
0
ARC
8
back_labelLayer
10
127.7230414
20
153.8452135
40
9.288746
50
353.4934852
51
0.2205553
0
ARC
8
back_labelLayer
10
127.434222
20
153.9197357
40
9.5775752
50
359.7680902
51
6.3095251
0
ARC
8
back_labelLayer
10
131.0419156
20
154.3337409
40
5.9462546
50
6.1648601
51
16.0396518
0
ARC
8
back_labelLayer
10
133.3659209
20
155.0186273
40
3.5235221
50
15.7779193
51
32.0151484
0
ARC
8
back_labelLayer
10
134.0904845
20
155.4335481
40
2.6893853
50
32.70347
51
35.5241319
0
ARC
8
back_labelLayer
10
134.3556744
20
155.6220279
40
2.3640397
50
35.5408356
51
79.8011276
0
ARC
8
back_labelLayer
10
134.0382087
20
154.2724222
40
3.7492528
50
78.6781247
51
90.3749718
0
LINE
8
back_labelLayer
10
149.3066406
20
148.5001103
11
148.1054688
21
148.5001103
0
LINE
8
back_labelLayer
10
148.1054688
20
148.5001103
11
147.7832031
21
150.0235478
0
LINE
8
back_labelLayer
10
147.7832031
20
150.0235478
11
147.7050781
21
150.0235478
0
LINE
8
back_labelLayer
10
145.9082031
20
154.8575322
11
147.7246094
21
154.9161259
0
LINE
8
back_labelLayer
10
147.7246094
20
154.9161259
11
147.7246094
21
155.5801884
0
LINE
8
back_labelLayer
10
142.421875
20
157.2208134
11
141.9238281
21
158.4610478
0
LINE
8
back_labelLayer
10
149.3066406
20
155.8047978
11
149.3066406
21
148.5001103
0
LINE
8
back_labelLayer
10
147.6855469
20
152.7969853
11
147.6855469
21
153.7637822
0
LINE
8
back_labelLayer
10
147.6855469
20
153.7637822
11
146.0644531
21
153.6954228
0
ARC
8
back_labelLayer
10
142.4306644
20
154.1879571
40
6.7202489
50
314.7445074
51
321.7071704
0
ARC
8
back_labelLayer
10
144.0817415
20
152.5103331
40
4.3664493
50
304.8485428
51
314.8530978
0
ARC
8
back_labelLayer
10
144.8748672
20
151.3813971
40
2.986777
50
294.3932694
51
304.7371559
0
ARC
8
back_labelLayer
10
144.6038997
20
152.0834926
40
3.7383563
50
281.2979431
51
293.7313825
0
ARC
8
back_labelLayer
10
144.2456914
20
153.8195485
40
5.5109586
50
272.9335174
51
281.4139131
0
ARC
8
back_labelLayer
10
144.1269653
20
155.6000298
40
7.2952343
50
269.9538855
51
273.1491107
0
ARC
8
back_labelLayer
10
144.0859498
20
153.279584
40
4.9749103
50
258.6719639
51
270.4047542
0
ARC
8
back_labelLayer
10
143.7403872
20
151.6265524
40
3.2862349
50
238.3273137
51
258.9183621
0
ARC
8
back_labelLayer
10
143.5022473
20
151.1920954
40
2.7915621
50
227.7689348
51
237.8050187
0
ARC
8
back_labelLayer
10
143.4277627
20
151.0881164
40
2.6645499
50
192.0827618
51
227.4520837
0
ARC
8
back_labelLayer
10
144.8014924
20
151.4267548
40
4.0789644
50
179.5457285
51
192.694943
0
ARC
8
back_labelLayer
10
143.5253096
20
151.5744445
40
2.8050261
50
115.4904649
51
182.3568121
0
ARC
8
back_labelLayer
10
144.9300973
20
148.9977752
40
5.7376476
50
101.3568205
51
117.0798671
0
ARC
8
back_labelLayer
10
146.0582719
20
143.7257077
40
11.1288529
50
92.4696269
51
101.7064866
0
ARC
8
back_labelLayer
10
146.3824904
20
139.03036
40
15.8342771
50
91.7164487
51
92.9096216
0
ARC
8
back_labelLayer
10
143.0684989
20
155.60511
40
4.6561772
50
359.693331
51
8.0035628
0
ARC
8
back_labelLayer
10
144.8298384
20
155.8616989
40
2.8762816
50
7.8272679
51
20.6041502
0
ARC
8
back_labelLayer
10
145.8265519
20
156.24299
40
1.8091542
50
20.4094277
51
41.4479322
0
ARC
8
back_labelLayer
10
145.9738197
20
156.3239384
40
1.6455973
50
42.729564
51
71.0380389
0
ARC
8
back_labelLayer
10
145.627111
20
155.3812322
40
2.6498947
50
70.5716248
51
83.9928856
0
ARC
8
back_labelLayer
10
145.4614756
20
154.035819
40
4.0053257
50
83.6506279
51
90.1753328
0
ARC
8
back_labelLayer
10
145.4905285
20
152.7633669
40
5.2779207
50
90.4484524
51
103.7665593
0
ARC
8
back_labelLayer
10
146.1111829
20
150.1460332
40
7.9677873
50
103.6226473
51
112.4320058
0
ARC
8
back_labelLayer
10
147.1750748
20
147.4597886
40
10.8568188
50
112.2122283
51
115.9640928
0
ARC
8
back_labelLayer
10
145.4713502
20
151.8822077
40
7.4743595
50
106.3568646
51
118.3349734
0
ARC
8
back_labelLayer
10
145.7896822
20
150.8988828
40
8.5075819
50
104.5161895
51
106.5489699
0
ARC
8
back_labelLayer
10
145.5562371
20
151.8715425
40
7.5074799
50
90.0714502
51
104.652096
0
ARC
8
back_labelLayer
10
145.5856983
20
152.5325074
40
6.8466192
50
81.5679788
51
90.3248934
0
ARC
8
back_labelLayer
10
145.9815605
20
155.1114421
40
4.2375352
50
68.2273377
51
81.7494148
0
ARC
8
back_labelLayer
10
146.5329279
20
156.4832925
40
2.7590347
50
47.8683409
51
68.2933994
0
ARC
8
back_labelLayer
10
146.6224197
20
156.6619777
40
2.567044
50
19.2330911
51
46.6741267
0
ARC
8
back_labelLayer
10
145.1316912
20
156.1074223
40
4.157374
50
6.3379111
51
19.6815496
0
ARC
8
back_labelLayer
10
142.9280519
20
155.8267669
40
6.3786266
50
359.8026633
51
6.658371
0
ARC
8
back_labelLayer
10
144.4761385
20
154.1059151
40
4.4633471
50
269.5792127
51
282.0413547
0
ARC
8
back_labelLayer
10
144.8017091
20
152.6618203
40
2.9831557
50
281.7120864
51
306.4593916
0
ARC
8
back_labelLayer
10
144.9460938
20
152.4243809
40
2.7065025
50
306.9880823
51
313.8559907
0
ARC
8
back_labelLayer
10
144.9288957
20
152.419491
40
2.7149381
50
314.1892061
51
347.4269792
0
ARC
8
back_labelLayer
10
143.5689102
20
152.7602966
40
4.1166607
50
346.9177645
51
0.2824482
0
ARC
8
back_labelLayer
10
142.5226294
20
152.7970382
40
5.1629176
50
359.817467
51
359.9994127
0
ARC
8
back_labelLayer
10
146.4500662
20
141.7985913
40
11.9030793
50
91.8564832
51
96.4478262
0
ARC
8
back_labelLayer
10
145.9132738
20
146.4436288
40
7.2271525
50
96.3545423
51
102.9953068
0
ARC
8
back_labelLayer
10
145.184616
20
149.5394904
40
4.0467499
50
102.7995585
51
113.24332
0
ARC
8
back_labelLayer
10
144.5839333
20
150.9760909
40
2.4897418
50
113.5886443
51
121.680458
0
ARC
8
back_labelLayer
10
144.1665917
20
151.6116959
40
1.7297996
50
120.9734105
51
172.4179761
0
ARC
8
back_labelLayer
10
144.9823049
20
151.4487613
40
2.5604465
50
171.2121897
51
180.2058228
0
ARC
8
back_labelLayer
10
144.7385229
20
151.4204208
40
2.316727
50
179.5265724
51
192.7787214
0
ARC
8
back_labelLayer
10
143.9548163
20
151.2304473
40
1.510459
50
192.326445
51
222.0579919
0
ARC
8
back_labelLayer
10
143.8965274
20
151.19559
40
1.4438911
50
222.5804588
51
229.2546163
0
ARC
8
back_labelLayer
10
144.0935082
20
151.4492005
40
1.7646752
50
229.7836963
51
254.2724368
0
ARC
8
back_labelLayer
10
144.3558684
20
152.3234906
40
2.6773946
50
253.9396744
51
266.4533722
0
ARC
8
back_labelLayer
10
144.4396009
20
153.2885805
40
3.6458941
50
266.0782346
51
270.0590643
0
LINE
8
back_labelLayer
10
159.7851563
20
158.8419072
11
159.2871094
21
157.4649541
0
LINE
8
back_labelLayer
10
159.6289063
20
150.2969853
11
159.6289063
21
148.8614384
0
ARC
8
back_labelLayer
10
156.8721212
20
154.3632527
40
6.0586755
50
256.4243755
51
270.4889884
0
ARC
8
back_labelLayer
10
156.3879769
20
152.4736772
40
4.1083396
50
221.7976345
51
256.8020472
0
ARC
8
back_labelLayer
10
156.8568144
20
152.8200827
40
4.6890531
50
196.0166575
51
221.1349271
0
ARC
8
back_labelLayer
10
159.2131655
20
153.5403047
40
7.1527796
50
183.591376
51
196.3539497
0
ARC
8
back_labelLayer
10
161.8527904
20
153.7728497
40
9.8020146
50
179.9388361
51
183.9815029
0
ARC
8
back_labelLayer
10
160.9951545
20
153.8409023
40
8.9445587
50
169.897846
51
180.3688969
0
ARC
8
back_labelLayer
10
157.8813448
20
154.4169111
40
5.7780272
50
153.0875059
51
170.1051419
0
ARC
8
back_labelLayer
10
156.6999074
20
154.9814342
40
4.4691314
50
138.6550063
51
152.6853485
0
ARC
8
back_labelLayer
10
156.479401
20
155.1421245
40
4.1975112
50
101.491292
51
138.3133869
0
ARC
8
back_labelLayer
10
156.9856242
20
153.0352793
40
6.3634321
50
89.5891859
51
102.1787782
0
ARC
8
back_labelLayer
10
157.0245506
20
152.0830162
40
7.3155347
50
77.7702363
51
89.9475301
0
ARC
8
back_labelLayer
10
156.886083
20
151.31911
40
8.0914803
50
74.6797009
51
77.9578473
0
ARC
8
back_labelLayer
10
157.6340573
20
154.0288783
40
5.2803836
50
70.094526
51
74.7386567
0
ARC
8
back_labelLayer
10
158.3454669
20
155.9784898
40
3.2050414
50
63.5034027
51
70.1861249
0
ARC
8
back_labelLayer
10
158.6860924
20
156.6915361
40
2.4149612
50
62.9282302
51
63.1884379
0
ARC
8
back_labelLayer
10
156.6240678
20
150.763004
40
7.211652
50
68.3294412
51
74.8831264
0
ARC
8
back_labelLayer
10
156.2436553
20
149.4141402
40
8.6130607
50
74.7801496
51
77.4497675
0
ARC
8
back_labelLayer
10
156.643055
20
151.2888765
40
6.6963547
50
77.2999021
51
81.7345291
0
ARC
8
back_labelLayer
10
156.934401
20
153.3189822
40
4.6454542
50
81.6910151
51
87.507921
0
ARC
8
back_labelLayer
10
156.9906145
20
154.3695998
40
3.5934013
50
87.674992
51
89.9749185
0
ARC
8
back_labelLayer
10
156.9118247
20
154.368077
40
3.595822
50
88.7193937
51
112.5667715
0
ARC
8
back_labelLayer
10
156.6563178
20
155.2128493
40
2.7191105
50
114.4265782
51
161.6632806
0
ARC
8
back_labelLayer
10
159.1945379
20
154.2193636
40
5.4429205
50
160.1418489
51
175.1368044
0
ARC
8
back_labelLayer
10
162.6880099
20
153.8270714
40
8.9575739
50
174.5309675
51
180.1549624
0
ARC
8
back_labelLayer
10
161.5812657
20
153.762305
40
7.8509016
50
179.7041402
51
188.0743723
0
ARC
8
back_labelLayer
10
158.7534707
20
153.348568
40
4.9930426
50
187.9315309
51
200.3885334
0
ARC
8
back_labelLayer
10
157.2244558
20
152.7821479
40
3.3624863
50
200.4183568
51
216.6392549
0
ARC
8
back_labelLayer
10
156.5834497
20
152.3239089
40
2.5747147
50
216.9695228
51
261.3103146
0
ARC
8
back_labelLayer
10
156.8663379
20
153.6427794
40
3.9220093
50
260.1359453
51
270.2692071
0
ARC
8
back_labelLayer
10
156.8532793
20
156.5068346
40
6.7860942
50
270.2658436
51
286.2891424
0
ARC
8
back_labelLayer
10
156.4407403
20
158.0453351
40
8.3786232
50
286.0460598
51
292.3653954
0
ARC
8
back_labelLayer
10
157.5393972
20
152.972001
40
4.6111574
50
282.0344333
51
296.9454504
0
ARC
8
back_labelLayer
10
157.0651709
20
155.1091529
40
6.8002402
50
272.5980445
51
282.1878533
0
ARC
8
back_labelLayer
10
156.9291798
20
157.1947576
40
8.8899615
50
269.9655087
51
272.8643089
0
LINE
8
back_labelLayer
10
163.6914063
20
153.9786259
11
163.7695313
21
153.9786259
0
LINE
8
back_labelLayer
10
165.0488281
20
155.5411259
11
168.5058594
21
159.2032353
0
LINE
8
back_labelLayer
10
168.5058594
20
159.2032353
11
170.4296875
21
159.2032353
0
LINE
8
back_labelLayer
10
170.4296875
20
159.2032353
11
166.09375
21
154.6426884
0
LINE
8
back_labelLayer
10
166.09375
20
154.6426884
11
170.7324219
21
148.5001103
0
LINE
8
back_labelLayer
10
170.7324219
20
148.5001103
11
168.7695313
21
148.5001103
0
LINE
8
back_labelLayer
10
168.7695313
20
148.5001103
11
164.9902344
21
153.5587041
0
LINE
8
back_labelLayer
10
164.9902344
20
153.5587041
11
163.7695313
21
152.5040166
0
LINE
8
back_labelLayer
10
163.7695313
20
152.5040166
11
163.7695313
21
148.5001103
0
LINE
8
back_labelLayer
10
163.7695313
20
148.5001103
11
162.1679688
21
148.5001103
0
LINE
8
back_labelLayer
10
162.1679688
20
148.5001103
11
162.1679688
21
163.6954228
0
LINE
8
back_labelLayer
10
162.1679688
20
163.6954228
11
163.7695313
21
163.6954228
0
LINE
8
back_labelLayer
10
163.7695313
20
163.6954228
11
163.7695313
21
155.6387822
0
ARC
8
back_labelLayer
10
171.6025346
20
148.434094
40
9.5967586
50
142.3233918
51
144.7075212
0
ARC
8
back_labelLayer
10
176.7127593
20
144.492464
40
16.0505045
50
140.4331061
51
142.3365832
0
ARC
8
back_labelLayer
10
183.3726946
20
139.0101636
40
24.6766385
50
139.2798925
51
140.470333
0
ARC
8
back_labelLayer
10
191.073863
20
132.387678
40
34.8336703
50
138.3417705
51
139.2877062
0
ARC
8
back_labelLayer
10
152.9667222
20
155.6590068
40
10.802828
50
358.2738882
51
359.8927332
0
ARC
8
back_labelLayer
10
144.5606473
20
155.8932771
40
19.2121548
50
357.5041933
51
358.3306763
0
ARC
8
back_labelLayer
10
131.9839581
20
156.4487927
40
31.8011053
50
356.6324975
51
357.4910035
0
ARC
8
back_labelLayer
10
111.0766685
20
157.6681531
40
52.7439211
50
356.0329142
51
356.6442762
0
ARC
8
back_labelLayer
10
96.4751586
20
158.6546298
40
67.378698
50
356.0205403
51
356.0550821
0
LINE
8
right_outsideCutPath
10
306
20
206
11
306
21
191.4375
0
LINE
8
right_outsideCutPath
10
306
20
191.4375
11
303
21
191.4375
0
LINE
8
right_outsideCutPath
10
303
20
191.4375
11
303
21
167.8125
0
LINE
8
right_outsideCutPath
10
303
20
167.8125
11
306
21
167.8125
0
LINE
8
right_outsideCutPath
10
306
20
167.8125
11
306
21
144.1875
0
LINE
8
right_outsideCutPath
10
306
20
144.1875
11
303
21
144.1875
0
LINE
8
right_outsideCutPath
10
303
20
144.1875
11
303
21
120.5625
0
LINE
8
right_outsideCutPath
10
303
20
120.5625
11
306
21
120.5625
0
LINE
8
right_outsideCutPath
10
306
20
120.5625
11
306
21
106
0
LINE
8
right_outsideCutPath
10
306
20
106
11
328.5625
21
106
0
LINE
8
right_outsideCutPath
10
328.5625
20
106
11
328.5625
21
109
0
LINE
8
right_outsideCutPath
10
328.5625
20
109
11
352.1875
21
109
0
LINE
8
right_outsideCutPath
10
352.1875
20
109
11
352.1875
21
106
0
LINE
8
right_outsideCutPath
10
352.1875
20
106
11
375.8125
21
106
0
LINE
8
right_outsideCutPath
10
375.8125
20
106
11
375.8125
21
109
0
LINE
8
right_outsideCutPath
10
375.8125
20
109
11
399.4375
21
109
0
LINE
8
right_outsideCutPath
10
399.4375
20
109
11
399.4375
21
106
0
LINE
8
right_outsideCutPath
10
399.4375
20
106
11
423.0625
21
106
0
LINE
8
right_outsideCutPath
10
423.0625
20
106
11
423.0625
21
109
0
LINE
8
right_outsideCutPath
10
423.0625
20
109
11
446.6875
21
109
0
LINE
8
right_outsideCutPath
10
446.6875
20
109
11
446.6875
21
106
0
LINE
8
right_outsideCutPath
10
446.6875
20
106
11
470.3125
21
106
0
LINE
8
right_outsideCutPath
10
470.3125
20
106
11
470.3125
21
109
0
LINE
8
right_outsideCutPath
10
470.3125
20
109
11
493.9375
21
109
0
LINE
8
right_outsideCutPath
10
493.9375
20
109
11
493.9375
21
106
0
LINE
8
right_outsideCutPath
10
493.9375
20
106
11
517.5625
21
106
0
LINE
8
right_outsideCutPath
10
517.5625
20
106
11
517.5625
21
109
0
LINE
8
right_outsideCutPath
10
517.5625
20
109
11
541.1875
21
109
0
LINE
8
right_outsideCutPath
10
541.1875
20
109
11
541.1875
21
106
0
LINE
8
right_outsideCutPath
10
541.1875
20
106
11
564.8125
21
106
0
LINE
8
right_outsideCutPath
10
564.8125
20
106
11
564.8125
21
109
0
LINE
8
right_outsideCutPath
10
564.8125
20
109
11
588.4375
21
109
0
LINE
8
right_outsideCutPath
10
588.4375
20
109
11
588.4375
21
106
0
LINE
8
right_outsideCutPath
10
588.4375
20
106
11
612.0625
21
106
0
LINE
8
right_outsideCutPath
10
612.0625
20
106
11
612.0625
21
109
0
LINE
8
right_outsideCutPath
10
612.0625
20
109
11
635.6875
21
109
0
LINE
8
right_outsideCutPath
10
635.6875
20
109
11
635.6875
21
106
0
LINE
8
right_outsideCutPath
10
635.6875
20
106
11
659.3125
21
106
0
LINE
8
right_outsideCutPath
10
659.3125
20
106
11
659.3125
21
109
0
LINE
8
right_outsideCutPath
10
659.3125
20
109
11
682.9375
21
109
0
LINE
8
right_outsideCutPath
10
682.9375
20
109
11
682.9375
21
106
0
LINE
8
right_outsideCutPath
10
682.9375
20
106
11
706.5625
21
106
0
LINE
8
right_outsideCutPath
10
706.5625
20
106
11
706.5625
21
109
0
LINE
8
right_outsideCutPath
10
706.5625
20
109
11
730.1875
21
109
0
LINE
8
right_outsideCutPath
10
730.1875
20
109
11
730.1875
21
106
0
LINE
8
right_outsideCutPath
10
730.1875
20
106
11
753.8125
21
106
0
LINE
8
right_outsideCutPath
10
753.8125
20
106
11
753.8125
21
109
0
LINE
8
right_outsideCutPath
10
753.8125
20
109
11
777.4375
21
109
0
LINE
8
right_outsideCutPath
10
777.4375
20
109
11
777.4375
21
106
0
LINE
8
right_outsideCutPath
10
777.4375
20
106
11
800
21
106
0
LINE
8
right_outsideCutPath
10
800
20
106
11
800
21
120.5625
0
LINE
8
right_outsideCutPath
10
800
20
120.5625
11
803
21
120.5625
0
LINE
8
right_outsideCutPath
10
803
20
120.5625
11
803
21
144.1875
0
LINE
8
right_outsideCutPath
10
803
20
144.1875
11
800
21
144.1875
0
LINE
8
right_outsideCutPath
10
800
20
144.1875
11
800
21
167.8125
0
LINE
8
right_outsideCutPath
10
800
20
167.8125
11
803
21
167.8125
0
LINE
8
right_outsideCutPath
10
803
20
167.8125
11
803
21
191.4375
0
LINE
8
right_outsideCutPath
10
803
20
191.4375
11
800
21
191.4375
0
LINE
8
right_outsideCutPath
10
800
20
191.4375
11
800
21
206
0
LINE
8
right_outsideCutPath
10
800
20
206
11
306
21
206
0
LINE
8
right_labelLayer
10
538.4736328
20
161.5859965
11
538.2490234
21
160.0820902
0
LINE
8
right_labelLayer
10
533.9326172
20
156.546934
11
533.9326172
21
150.8047465
0
LINE
8
right_labelLayer
10
533.9326172
20
150.8047465
11
532.3115234
21
150.8047465
0
LINE
8
right_labelLayer
10
532.3115234
20
150.8047465
11
532.3115234
21
161.5078715
0
LINE
8
right_labelLayer
10
532.3115234
20
161.5078715
11
533.6494141
21
161.5078715
0
LINE
8
right_labelLayer
10
533.6494141
20
161.5078715
11
533.8349609
21
159.5254496
0
LINE
8
right_labelLayer
10
533.8349609
20
159.5254496
11
533.9130859
21
159.5254496
0
ARC
8
right_labelLayer
10
537.2109731
20
154.2609915
40
7.4422111
50
84.992291
51
90.1280853
0
ARC
8
right_labelLayer
10
537.3897017
20
156.263446
40
5.4317999
50
78.4891881
51
85.0266001
0
ARC
8
right_labelLayer
10
536.6959917
20
153.1082823
40
7.1446416
50
77.4453847
51
81.6360114
0
ARC
8
right_labelLayer
10
537.0072803
20
155.2539438
40
4.9765227
50
81.5884291
51
87.1916446
0
ARC
8
right_labelLayer
10
537.074891
20
156.4262208
40
3.8023544
50
87.3437351
51
89.9659832
0
ARC
8
right_labelLayer
10
537.0591828
20
157.4197569
40
2.8088752
50
89.6335332
51
137.0880824
0
ARC
8
right_labelLayer
10
537.7484147
20
156.6446749
40
3.8426618
50
135.6208614
51
138.8378137
0
ARC
8
right_labelLayer
10
537.6475217
20
156.7431608
40
3.7018901
50
138.9575794
51
174.5422254
0
ARC
8
right_labelLayer
10
538.8531895
20
156.5545133
40
4.9205781
50
173.6907914
51
180.0882543
0
ARC
8
right_labelLayer
10
538.6826861
20
156.838279
40
5.4744836
50
139.4139283
51
150.6032915
0
ARC
8
right_labelLayer
10
537.7011144
20
157.6793819
40
4.1818363
50
124.2321574
51
139.4160923
0
ARC
8
right_labelLayer
10
537.1762687
20
158.471632
40
3.2316024
50
89.6796684
51
124.4405593
0
LINE
8
right_labelLayer
10
542.0966797
20
161.5078715
11
542.0966797
21
150.8047465
0
LINE
8
right_labelLayer
10
542.0966797
20
150.8047465
11
540.4755859
21
150.8047465
0
LINE
8
right_labelLayer
10
540.4755859
20
150.8047465
11
540.4755859
21
161.5078715
0
LINE
8
right_labelLayer
10
540.4755859
20
161.5078715
11
542.0966797
21
161.5078715
0
ARC
8
right_labelLayer
10
542.1352002
20
164.4193747
40
1.7963674
50
170.84516
51
180.354443
0
ARC
8
right_labelLayer
10
541.4627107
20
164.5318181
40
1.1145614
50
155.96784
51
171.0516068
0
ARC
8
right_labelLayer
10
541.1369972
20
164.676319
40
0.7582342
50
133.7880515
51
155.9170999
0
ARC
8
right_labelLayer
10
541.2572495
20
164.5433735
40
0.9374362
50
92.6445969
51
133.4710463
0
ARC
8
right_labelLayer
10
541.2952373
20
164.2449592
40
1.2375218
50
89.969388
51
93.7640939
0
ARC
8
right_labelLayer
10
541.3106995
20
164.5274675
40
0.955128
50
46.3708278
51
90.8879141
0
ARC
8
right_labelLayer
10
541.4057574
20
164.625602
40
0.8185082
50
17.7252267
51
46.4473562
0
ARC
8
right_labelLayer
10
540.9624771
20
164.4729548
40
1.2872609
50
4.9427611
51
18.1900435
0
ARC
8
right_labelLayer
10
540.3986025
20
164.4119934
40
1.854331
50
359.8847085
51
5.3182096
0
ARC
8
right_labelLayer
10
540.5756929
20
164.3968732
40
1.6772754
50
349.8345182
51
0.3890488
0
ARC
8
right_labelLayer
10
541.1863228
20
164.2829624
40
1.0561358
50
332.6322522
51
350.070587
0
ARC
8
right_labelLayer
10
541.4239914
20
164.1656033
40
0.7911343
50
313.6153551
51
332.2677738
0
ARC
8
right_labelLayer
10
541.3094523
20
164.2698955
40
0.9457148
50
269.1788142
51
314.2807511
0
ARC
8
right_labelLayer
10
541.2851545
20
164.3539714
40
1.0297497
50
250.5000439
51
270.5978105
0
ARC
8
right_labelLayer
10
541.2539904
20
164.2374378
40
0.9095473
50
225.1300523
51
249.9001405
0
ARC
8
right_labelLayer
10
541.2051983
20
164.1835405
40
0.8369342
50
197.7933491
51
224.8942061
0
ARC
8
right_labelLayer
10
541.6618577
20
164.3400336
40
1.3196052
50
184.9925272
51
198.2040554
0
ARC
8
right_labelLayer
10
542.2528838
20
164.4042737
40
1.9140208
50
179.8806098
51
185.368566
0
LINE
8
right_labelLayer
10
550.5927734
20
161.5078715
11
554.2939453
21
161.5078715
0
LINE
8
right_labelLayer
10
554.2939453
20
161.5078715
11
554.2939453
21
160.4824808
0
LINE
8
right_labelLayer
10
554.2939453
20
160.4824808
11
552.3115234
21
160.2481058
0
LINE
8
right_labelLayer
10
548.6591797
20
152.5039652
11
550.5537109
21
152.5039652
0
LINE
8
right_labelLayer
10
550.0361328
20
151.0488871
11
548.0927734
21
151.0488871
0
ARC
8
right_labelLayer
10
550.2457144
20
158.6132451
40
2.6344519
50
29.4583912
51
38.3577421
0
ARC
8
right_labelLayer
10
549.1691082
20
157.9986554
40
3.874121
50
23.1845822
51
29.5421815
0
ARC
8
right_labelLayer
10
548.1419093
20
157.5431305
40
4.997723
50
21.2506855
51
23.3489206
0
ARC
8
right_labelLayer
10
549.8879468
20
158.2375399
40
3.1187547
50
6.8504735
51
20.9872
0
ARC
8
right_labelLayer
10
549.0095809
20
158.1184446
40
4.0050778
50
359.8710952
51
7.0432407
0
ARC
8
right_labelLayer
10
549.2985676
20
158.070793
40
3.7162817
50
342.5649726
51
0.5957577
0
ARC
8
right_labelLayer
10
549.983963
20
157.8815291
40
3.0057696
50
310.6097754
51
342.0923762
0
ARC
8
right_labelLayer
10
549.5996172
20
158.3285942
40
3.5953358
50
284.9315915
51
310.6222663
0
ARC
8
right_labelLayer
10
549.1186565
20
160.0139454
40
5.3477935
50
272.5334957
51
285.257977
0
ARC
8
right_labelLayer
10
548.9949931
20
161.7031846
40
7.0410173
50
269.9692232
51
272.9311949
0
ARC
8
right_labelLayer
10
548.9796499
20
159.8721008
40
5.2099453
50
263.4836855
51
270.1271415
0
ARC
8
right_labelLayer
10
548.8947813
20
159.0659981
40
4.3994247
50
259.4963395
51
263.3904223
0
ARC
8
right_labelLayer
10
549.4200129
20
152.179081
40
2.8846791
50
117.3935299
51
128.4095265
0
ARC
8
right_labelLayer
10
548.6773789
20
153.1003731
40
1.7014082
50
128.0881899
51
147.1400598
0
ARC
8
right_labelLayer
10
548.2772978
20
153.368858
40
1.2196931
50
147.5369239
51
180.2592022
0
ARC
8
right_labelLayer
10
547.8977479
20
153.3529568
40
0.8401949
50
179.291902
51
198.3580478
0
ARC
8
right_labelLayer
10
547.7404361
20
153.3116135
40
0.6779462
50
199.2291438
51
239.5690898
0
ARC
8
right_labelLayer
10
547.8707957
20
153.4917189
40
0.8995167
50
238.2200043
51
239.8460148
0
ARC
8
right_labelLayer
10
547.9749236
20
153.7058924
40
1.1371495
50
240.7301941
51
254.5027091
0
ARC
8
right_labelLayer
10
548.28529
20
154.7754
40
2.2507401
50
254.1636876
51
262.2122981
0
ARC
8
right_labelLayer
10
548.5311249
20
156.4924505
40
3.9852803
50
262.0555586
51
267.2083598
0
ARC
8
right_labelLayer
10
548.649889
20
158.6707901
40
6.1668318
50
267.0919511
51
270.0863196
0
ARC
8
right_labelLayer
10
550.5891476
20
145.8682378
40
6.635822
50
81.5744259
51
90.3059724
0
ARC
8
right_labelLayer
10
550.9531372
20
148.2421106
40
4.2342546
50
68.367136
51
81.7399222
0
ARC
8
right_labelLayer
10
551.4285434
20
149.4570733
40
2.9296117
50
52.1879624
51
68.2500955
0
ARC
8
right_labelLayer
10
551.7611951
20
149.9052999
40
2.3715914
50
8.6201447
51
51.898241
0
ARC
8
right_labelLayer
10
550.5953033
20
149.6586094
40
3.5619591
50
359.7430778
51
9.7326305
0
ARC
8
right_labelLayer
10
550.6475253
20
149.5985216
40
3.5099785
50
340.5268782
51
0.720146
0
ARC
8
right_labelLayer
10
551.1632266
20
149.4701182
40
2.9814051
50
302.9903718
51
339.5494545
0
ARC
8
right_labelLayer
10
550.6210276
20
150.1593159
40
3.8555242
50
303.1871148
51
304.1720169
0
ARC
8
right_labelLayer
10
550.1173545
20
151.0315523
40
4.8615076
50
286.254211
51
302.5280183
0
ARC
8
right_labelLayer
10
549.1992089
20
154.0600161
40
8.0259813
50
276.4939772
51
286.4953662
0
ARC
8
right_labelLayer
10
548.6263399
20
158.8488822
40
12.8489412
50
269.7545176
51
276.6169549
0
ARC
8
right_labelLayer
10
548.5285043
20
155.0825184
40
9.0825602
50
262.5634818
51
270.2699014
0
ARC
8
right_labelLayer
10
548.0836576
20
151.7853262
40
5.7555434
50
251.2102012
51
262.7064068
0
ARC
8
right_labelLayer
10
547.4424834
20
149.9033831
40
3.767375
50
235.966797
51
251.2229064
0
ARC
8
right_labelLayer
10
546.7628952
20
148.93388
40
2.5836695
50
208.9036115
51
236.4231609
0
ARC
8
right_labelLayer
10
546.8252833
20
148.9077284
40
2.6261819
50
182.2079755
51
207.7461672
0
ARC
8
right_labelLayer
10
547.6194471
20
148.987056
40
3.4231584
50
179.9785049
51
183.0226599
0
ARC
8
right_labelLayer
10
546.6746382
20
149.0318278
40
2.4787307
50
138.391614
51
181.0052658
0
ARC
8
right_labelLayer
10
546.936396
20
148.7965852
40
2.8306574
50
113.8121401
51
138.3496206
0
ARC
8
right_labelLayer
10
547.4329196
20
147.7243837
40
4.0121099
50
102.2870907
51
114.1172764
0
ARC
8
right_labelLayer
10
547.276901
20
153.1755483
40
1.6824853
50
216.5861576
51
245.4968502
0
ARC
8
right_labelLayer
10
547.517679
20
153.3798314
40
1.9976852
50
215.4650457
51
217.1747138
0
ARC
8
right_labelLayer
10
547.1165759
20
153.0901191
40
1.5029096
50
182.1767501
51
215.3415496
0
ARC
8
right_labelLayer
10
547.4738967
20
153.1284392
40
1.8615921
50
179.9838091
51
182.937617
0
ARC
8
right_labelLayer
10
547.4660535
20
153.1446357
40
1.853815
50
161.7226125
51
180.4843331
0
ARC
8
right_labelLayer
10
547.262229
20
153.2002517
40
1.6428689
50
144.4963479
51
161.335045
0
ARC
8
right_labelLayer
10
547.8055658
20
152.7953075
40
2.320404
50
132.7259275
51
144.1479182
0
ARC
8
right_labelLayer
10
548.676352
20
151.8654116
40
3.594345
50
125.2212527
51
132.8655526
0
ARC
8
right_labelLayer
10
549.5518309
20
150.6497015
40
5.0924354
50
121.2352449
51
125.3794758
0
ARC
8
right_labelLayer
10
547.9998391
20
157.6290665
40
2.8419075
50
215.1640727
51
247.4747853
0
ARC
8
right_labelLayer
10
548.5303222
20
158.0571898
40
3.5224263
50
212.4714021
51
215.887566
0
ARC
8
right_labelLayer
10
548.3908273
20
157.9573907
40
3.351173
50
183.0160775
51
212.312319
0
ARC
8
right_labelLayer
10
549.1261667
20
158.0393543
40
4.0900342
50
179.9759015
51
183.6206916
0
ARC
8
right_labelLayer
10
549.7195808
20
158.0806338
40
4.683615
50
166.8195875
51
180.4839435
0
ARC
8
right_labelLayer
10
548.1658397
20
158.472919
40
3.0814803
50
132.3287821
51
167.3340828
0
ARC
8
right_labelLayer
10
548.373709
20
158.1741229
40
3.4426821
50
106.2189004
51
131.5377554
0
ARC
8
right_labelLayer
10
548.8996577
20
156.4711407
40
5.2248723
50
93.632975
51
106.5408676
0
ARC
8
right_labelLayer
10
549.0713547
20
154.5435392
40
7.1596488
50
89.9380052
51
94.0267838
0
ARC
8
right_labelLayer
10
549.0991611
20
155.4894799
40
6.2137364
50
82.585225
51
90.1849663
0
ARC
8
right_labelLayer
10
549.2890225
20
156.9584787
40
4.7325197
50
74.0089194
51
82.5694553
0
ARC
8
right_labelLayer
10
547.3867554
20
148.9857284
40
1.6281169
50
179.2207309
51
200.935564
0
ARC
8
right_labelLayer
10
547.193143
20
148.9408972
40
1.4315278
50
202.028675
51
236.1457476
0
ARC
8
right_labelLayer
10
547.4849161
20
149.3113575
40
1.9020601
50
235.0634158
51
238.5041866
0
ARC
8
right_labelLayer
10
547.824176
20
149.917318
40
2.5961346
50
239.106615
51
254.4863067
0
ARC
8
right_labelLayer
10
548.2764728
20
151.4768186
40
4.219834
50
254.2323945
51
263.4937537
0
ARC
8
right_labelLayer
10
548.5605871
20
153.8832019
40
6.6429195
50
263.4108368
51
270.1457377
0
ARC
8
right_labelLayer
10
548.5906895
20
155.4652806
40
8.2249871
50
269.9080095
51
270.0009111
0
ARC
8
right_labelLayer
10
548.6296693
20
158.1380649
40
10.8978408
50
269.7957494
51
275.3991084
0
ARC
8
right_labelLayer
10
549.0375397
20
153.9508652
40
6.6908512
50
275.2957034
51
283.3515941
0
ARC
8
right_labelLayer
10
549.702051
20
151.213867
40
3.8744047
50
283.1370673
51
295.8573119
0
ARC
8
right_labelLayer
10
550.1944185
20
150.1389585
40
2.6924989
50
296.4048133
51
301.800872
0
ARC
8
right_labelLayer
10
550.387477
20
149.8728482
40
2.3647203
50
301.2230954
51
318.6238129
0
ARC
8
right_labelLayer
10
550.8228919
20
149.4706383
40
1.7721859
50
319.0765535
51
1.1406985
0
ARC
8
right_labelLayer
10
550.4015074
20
149.5232944
40
2.193288
50
359.5460775
51
10.9904899
0
ARC
8
right_labelLayer
10
551.2486928
20
149.6956118
40
1.3288113
50
10.6608775
51
30.9361534
0
ARC
8
right_labelLayer
10
551.5173109
20
149.8446848
40
1.0218218
50
31.5095492
51
58.0777723
0
ARC
8
right_labelLayer
10
551.2655513
20
149.3938992
40
1.5377539
50
58.9972155
51
73.8586059
0
ARC
8
right_labelLayer
10
550.7566869
20
147.7280294
40
3.2795218
50
73.4099876
51
81.5906846
0
ARC
8
right_labelLayer
10
550.3255288
20
144.9378407
40
6.102794
50
81.4172367
51
86.575637
0
ARC
8
right_labelLayer
10
550.0613221
20
140.7339935
40
10.3149243
50
86.5054507
51
90.139918
0
ARC
8
right_labelLayer
10
548.0695872
20
147.3225499
40
3.7264093
50
89.6434955
51
100.0209284
0
ARC
8
right_labelLayer
10
547.8353753
20
148.5966364
40
2.4310217
50
99.810277
51
116.8229778
0
ARC
8
right_labelLayer
10
547.6072334
20
149.0777576
40
1.8987691
50
117.2304679
51
130.5023043
0
ARC
8
right_labelLayer
10
547.4900887
20
149.2283167
40
1.7082263
50
130.7944641
51
169.0413514
0
ARC
8
right_labelLayer
10
548.352704
20
149.025168
40
2.5939725
50
168.2580722
51
180.3820499
0
ARC
8
right_labelLayer
10
549.8019445
20
158.055935
40
3.1643417
50
179.5617754
51
191.6528905
0
ARC
8
right_labelLayer
10
548.7017349
20
157.8182313
40
2.0388239
50
191.3555163
51
213.366036
0
ARC
8
right_labelLayer
10
548.4375221
20
157.6656723
40
1.7343473
50
213.9573883
51
227.7971276
0
ARC
8
right_labelLayer
10
548.6673917
20
157.9444687
40
2.0953571
50
228.2620612
51
254.7341401
0
ARC
8
right_labelLayer
10
548.9610679
20
158.9511909
40
3.1439339
50
254.4016282
51
267.4348698
0
ARC
8
right_labelLayer
10
549.0376859
20
159.9787639
40
4.174018
50
267.0154833
51
270.0323008
0
ARC
8
right_labelLayer
10
549.0877649
20
159.3360605
40
3.5316365
50
269.2256931
51
284.3773202
0
ARC
8
right_labelLayer
10
549.5691216
20
157.659008
40
1.788278
50
282.7796683
51
346.4828524
0
ARC
8
right_labelLayer
10
548.1299962
20
158.066651
40
3.2833685
50
345.4362055
51
0.7465961
0
ARC
8
right_labelLayer
10
547.9276957
20
158.1592801
40
3.4857466
50
359.1806438
51
15.0431674
0
ARC
8
right_labelLayer
10
549.5071517
20
158.6200239
40
1.8411661
50
13.9535587
51
77.6673868
0
ARC
8
right_labelLayer
10
549.0539902
20
156.9960842
40
3.5257245
50
76.1095116
51
90.702832
0
ARC
8
right_labelLayer
10
548.9861611
20
157.1201095
40
3.4015226
50
89.5859491
51
101.3333872
0
ARC
8
right_labelLayer
10
548.7430772
20
158.279522
40
2.2169729
50
101.0620478
51
121.9739155
0
ARC
8
right_labelLayer
10
548.572236
20
158.5868511
40
1.8658881
50
122.5210678
51
134.9967093
0
ARC
8
right_labelLayer
10
548.6425819
20
158.544701
40
1.9455358
50
135.5840084
51
163.001576
0
ARC
8
right_labelLayer
10
549.6699682
20
158.2079612
40
3.0265604
50
162.5912073
51
175.7343257
0
ARC
8
right_labelLayer
10
550.9022134
20
158.08657
40
4.2645229
50
175.3393345
51
180.0864289
0
LINE
8
right_labelLayer
10
565.4365234
20
150.8047465
11
563.8154297
21
150.8047465
0
LINE
8
right_labelLayer
10
563.8154297
20
150.8047465
11
563.8154297
21
157.7285746
0
LINE
8
right_labelLayer
10
558.1123047
20
156.4004496
11
558.1123047
21
150.8047465
0
LINE
8
right_labelLayer
10
558.1123047
20
150.8047465
11
556.4912109
21
150.8047465
0
LINE
8
right_labelLayer
10
556.4912109
20
150.8047465
11
556.4912109
21
166.000059
0
LINE
8
right_labelLayer
10
556.4912109
20
166.000059
11
558.1123047
21
166.000059
0
LINE
8
right_labelLayer
10
558.1123047
20
166.000059
11
558.1123047
21
161.4004496
0
LINE
8
right_labelLayer
10
558.0341797
20
160.0234965
11
558.1318359
21
160.0234965
0
LINE
8
right_labelLayer
10
565.4365234
20
157.7871683
11
565.4365234
21
150.8047465
0
ARC
8
right_labelLayer
10
559.2330699
20
157.7548532
40
4.5824351
50
359.6714273
51
8.6877183
0
ARC
8
right_labelLayer
10
560.931464
20
158.0242078
40
2.8628588
50
8.4931172
51
22.6580015
0
ARC
8
right_labelLayer
10
561.7943479
20
158.3827957
40
1.9284334
50
22.7024538
51
42.3419526
0
ARC
8
right_labelLayer
10
561.8913429
20
158.4264271
40
1.8276521
50
43.3791036
51
71.5386098
0
ARC
8
right_labelLayer
10
561.5286364
20
157.4129338
40
2.9039368
50
71.0827882
51
84.3690971
0
ARC
8
right_labelLayer
10
561.3658248
20
156.0286776
40
4.2975682
50
84.0197499
51
90.1510883
0
ARC
8
right_labelLayer
10
561.3195551
20
155.4206932
40
4.9056621
50
89.5919487
51
100.3595241
0
ARC
8
right_labelLayer
10
560.972191
20
157.2461406
40
3.047537
50
100.1068053
51
118.0847271
0
ARC
8
right_labelLayer
10
560.6188898
20
157.9394039
40
2.2696253
50
118.4551041
51
139.6706062
0
ARC
8
right_labelLayer
10
560.9735781
20
157.6969689
40
2.6972872
50
140.6208152
51
160.5049118
0
ARC
8
right_labelLayer
10
562.8431877
20
157.0048458
40
4.6907784
50
160.1567165
51
171.5312858
0
ARC
8
right_labelLayer
10
565.8682624
20
156.5255609
40
7.7535057
50
171.3202501
51
178.3406756
0
ARC
8
right_labelLayer
10
568.5748205
20
156.4046422
40
10.4625167
50
178.1079588
51
180.0229599
0
ARC
8
right_labelLayer
10
543.5295732
20
161.3830616
40
14.5827418
50
357.8674098
51
0.0683177
0
ARC
8
right_labelLayer
10
548.4833994
20
161.1940583
40
9.6253145
50
354.9828812
51
357.8943747
0
ARC
8
right_labelLayer
10
551.755291
20
160.9091495
40
6.3410428
50
351.9712528
51
354.9619117
0
ARC
8
right_labelLayer
10
560.8776945
20
158.3058665
40
3.2388257
50
119.8315968
51
147.9725896
0
ARC
8
right_labelLayer
10
561.2698747
20
157.7034066
40
3.9567528
50
116.6658028
51
120.4183243
0
ARC
8
right_labelLayer
10
561.3431111
20
157.5110347
40
4.1615837
50
96.6652572
51
116.3782364
0
ARC
8
right_labelLayer
10
561.5008935
20
156.4224061
40
5.2612558
50
89.8927469
51
96.9958896
0
ARC
8
right_labelLayer
10
561.5513445
20
155.1067581
40
6.5770199
50
80.6863111
51
90.3537096
0
ARC
8
right_labelLayer
10
561.9608715
20
157.5155442
40
4.1337356
50
65.6022926
51
80.8843959
0
ARC
8
right_labelLayer
10
562.4526385
20
158.6231159
40
2.9219527
50
46.7401062
51
65.4130663
0
ARC
8
right_labelLayer
10
562.4860634
20
158.728651
40
2.8225978
50
19.2204318
51
45.7660665
0
ARC
8
right_labelLayer
10
560.8585273
20
158.1253107
40
4.5581614
50
6.4733964
51
19.6467979
0
ARC
8
right_labelLayer
10
558.4266044
20
157.8123096
40
7.009964
50
359.7945084
51
6.7743941
0
LINE
8
right_labelLayer
10
573.6884766
20
152.1426371
11
573.6884766
21
150.9024027
0
LINE
8
right_labelLayer
10
568.8837891
20
153.8809183
11
568.8837891
21
160.2481058
0
LINE
8
right_labelLayer
10
568.8837891
20
160.2481058
11
567.3505859
21
160.2481058
0
LINE
8
right_labelLayer
10
567.3505859
20
160.2481058
11
567.3505859
21
161.0293558
0
LINE
8
right_labelLayer
10
567.3505859
20
161.0293558
11
568.8837891
21
161.703184
0
LINE
8
right_labelLayer
10
568.8837891
20
161.703184
11
569.5673828
21
163.9883402
0
LINE
8
right_labelLayer
10
569.5673828
20
163.9883402
11
570.5048828
21
163.9883402
0
LINE
8
right_labelLayer
10
570.5048828
20
163.9883402
11
570.5048828
21
161.5078715
0
LINE
8
right_labelLayer
10
570.5048828
20
161.5078715
11
573.6103516
21
161.5078715
0
LINE
8
right_labelLayer
10
573.6103516
20
161.5078715
11
573.6103516
21
160.2481058
0
LINE
8
right_labelLayer
10
573.6103516
20
160.2481058
11
570.5048828
21
160.2481058
0
LINE
8
right_labelLayer
10
570.5048828
20
160.2481058
11
570.5048828
21
153.9492777
0
ARC
8
right_labelLayer
10
572.2347514
20
157.2712074
40
5.3238944
50
269.8803417
51
278.3028182
0
ARC
8
right_labelLayer
10
572.284398
20
156.8638546
40
4.9136514
50
278.4158959
51
279.0076561
0
ARC
8
right_labelLayer
10
571.6880479
20
160.6734033
40
8.7695902
50
278.9589695
51
280.5103918
0
ARC
8
right_labelLayer
10
572.2573839
20
157.6185373
40
5.6621249
50
280.4847522
51
282.6268451
0
ARC
8
right_labelLayer
10
572.7566736
20
155.4003626
40
3.3884538
50
282.5876165
51
285.5795336
0
ARC
8
right_labelLayer
10
573.0083329
20
154.4750941
40
2.429599
50
285.7231888
51
286.2566654
0
ARC
8
right_labelLayer
10
573.0069231
20
152.3439275
40
1.5945246
50
287.9888406
51
295.3048016
0
ARC
8
right_labelLayer
10
572.6223285
20
153.5075088
40
2.8200086
50
283.3069861
51
288.1197567
0
ARC
8
right_labelLayer
10
572.2160747
20
155.2021221
40
4.5626327
50
280.0069961
51
283.3735389
0
ARC
8
right_labelLayer
10
571.9442668
20
156.6772062
40
6.0625179
50
279.1862135
51
280.1142603
0
ARC
8
right_labelLayer
10
571.7773867
20
157.6263542
40
7.0261467
50
275.5260122
51
279.2939725
0
ARC
8
right_labelLayer
10
571.9654064
20
155.6624417
40
5.0532558
50
270.8932457
51
275.5483966
0
ARC
8
right_labelLayer
10
571.9890142
20
154.7653064
40
4.1558726
50
270.0033586
51
270.7606301
0
ARC
8
right_labelLayer
10
571.9238416
20
154.8429864
40
4.2340578
50
253.784789
51
270.8852547
0
ARC
8
right_labelLayer
10
571.4222185
20
153.1322616
40
2.4513133
50
190.3817699
51
253.8772374
0
ARC
8
right_labelLayer
10
573.9789898
20
153.8235667
40
5.0955236
50
179.3551054
51
192.8477577
0
ARC
8
right_labelLayer
10
573.7691821
20
153.9288628
40
3.2643631
50
179.6416773
51
189.7505556
0
ARC
8
right_labelLayer
10
572.616792
20
153.7233226
40
2.093823
50
189.5479676
51
205.7873396
0
ARC
8
right_labelLayer
10
572.1432062
20
153.5049372
40
1.5724225
50
206.1294051
51
221.408398
0
ARC
8
right_labelLayer
10
572.0901078
20
153.464647
40
1.505957
50
221.5949091
51
262.3505289
0
ARC
8
right_labelLayer
10
572.2163992
20
154.1140853
40
2.1667729
50
261.3266216
51
270.1912791
0
LINE
8
bottom_outsideCutPath
10
809
20
500
11
809
21
477.4375
0
LINE
8
bottom_outsideCutPath
10
809
20
477.4375
11
806
21
477.4375
0
LINE
8
bottom_outsideCutPath
10
806
20
477.4375
11
806
21
453.8125
0
LINE
8
bottom_outsideCutPath
10
806
20
453.8125
11
809
21
453.8125
0
LINE
8
bottom_outsideCutPath
10
809
20
453.8125
11
809
21
430.1875
0
LINE
8
bottom_outsideCutPath
10
809
20
430.1875
11
806
21
430.1875
0
LINE
8
bottom_outsideCutPath
10
806
20
430.1875
11
806
21
406.5625
0
LINE
8
bottom_outsideCutPath
10
806
20
406.5625
11
809
21
406.5625
0
LINE
8
bottom_outsideCutPath
10
809
20
406.5625
11
809
21
382.9375
0
LINE
8
bottom_outsideCutPath
10
809
20
382.9375
11
806
21
382.9375
0
LINE
8
bottom_outsideCutPath
10
806
20
382.9375
11
806
21
359.3125
0
LINE
8
bottom_outsideCutPath
10
806
20
359.3125
11
809
21
359.3125
0
LINE
8
bottom_outsideCutPath
10
809
20
359.3125
11
809
21
335.6875
0
LINE
8
bottom_outsideCutPath
10
809
20
335.6875
11
806
21
335.6875
0
LINE
8
bottom_outsideCutPath
10
806
20
335.6875
11
806
21
312.0625
0
LINE
8
bottom_outsideCutPath
10
806
20
312.0625
11
809
21
312.0625
0
LINE
8
bottom_outsideCutPath
10
809
20
312.0625
11
809
21
288.4375
0
LINE
8
bottom_outsideCutPath
10
809
20
288.4375
11
806
21
288.4375
0
LINE
8
bottom_outsideCutPath
10
806
20
288.4375
11
806
21
264.8125
0
LINE
8
bottom_outsideCutPath
10
806
20
264.8125
11
809
21
264.8125
0
LINE
8
bottom_outsideCutPath
10
809
20
264.8125
11
809
21
241.1875
0
LINE
8
bottom_outsideCutPath
10
809
20
241.1875
11
806
21
241.1875
0
LINE
8
bottom_outsideCutPath
10
806
20
241.1875
11
806
21
217.5625
0
LINE
8
bottom_outsideCutPath
10
806
20
217.5625
11
809
21
217.5625
0
LINE
8
bottom_outsideCutPath
10
809
20
217.5625
11
809
21
193.9375
0
LINE
8
bottom_outsideCutPath
10
809
20
193.9375
11
806
21
193.9375
0
LINE
8
bottom_outsideCutPath
10
806
20
193.9375
11
806
21
170.3125
0
LINE
8
bottom_outsideCutPath
10
806
20
170.3125
11
809
21
170.3125
0
LINE
8
bottom_outsideCutPath
10
809
20
170.3125
11
809
21
146.6875
0
LINE
8
bottom_outsideCutPath
10
809
20
146.6875
11
806
21
146.6875
0
LINE
8
bottom_outsideCutPath
10
806
20
146.6875
11
806
21
123.0625
0
LINE
8
bottom_outsideCutPath
10
806
20
123.0625
11
809
21
123.0625
0
LINE
8
bottom_outsideCutPath
10
809
20
123.0625
11
809
21
99.4375
0
LINE
8
bottom_outsideCutPath
10
809
20
99.4375
11
806
21
99.4375
0
LINE
8
bottom_outsideCutPath
10
806
20
99.4375
11
806
21
75.8125
0
LINE
8
bottom_outsideCutPath
10
806
20
75.8125
11
809
21
75.8125
0
LINE
8
bottom_outsideCutPath
10
809
20
75.8125
11
809
21
52.1875
0
LINE
8
bottom_outsideCutPath
10
809
20
52.1875
11
806
21
52.1875
0
LINE
8
bottom_outsideCutPath
10
806
20
52.1875
11
806
21
28.5625
0
LINE
8
bottom_outsideCutPath
10
806
20
28.5625
11
809
21
28.5625
0
LINE
8
bottom_outsideCutPath
10
809
20
28.5625
11
809
21
6
0
LINE
8
bottom_outsideCutPath
10
809
20
6
11
826.0625
21
6
0
LINE
8
bottom_outsideCutPath
10
826.0625
20
6
11
826.0625
21
3
0
LINE
8
bottom_outsideCutPath
10
826.0625
20
3
11
849.6875
21
3
0
LINE
8
bottom_outsideCutPath
10
849.6875
20
3
11
849.6875
21
6
0
LINE
8
bottom_outsideCutPath
10
849.6875
20
6
11
873.3125
21
6
0
LINE
8
bottom_outsideCutPath
10
873.3125
20
6
11
873.3125
21
3
0
LINE
8
bottom_outsideCutPath
10
873.3125
20
3
11
896.9375
21
3
0
LINE
8
bottom_outsideCutPath
10
896.9375
20
3
11
896.9375
21
6
0
LINE
8
bottom_outsideCutPath
10
896.9375
20
6
11
920.5625
21
6
0
LINE
8
bottom_outsideCutPath
10
920.5625
20
6
11
920.5625
21
3
0
LINE
8
bottom_outsideCutPath
10
920.5625
20
3
11
944.1875
21
3
0
LINE
8
bottom_outsideCutPath
10
944.1875
20
3
11
944.1875
21
6
0
LINE
8
bottom_outsideCutPath
10
944.1875
20
6
11
967.8125
21
6
0
LINE
8
bottom_outsideCutPath
10
967.8125
20
6
11
967.8125
21
3
0
LINE
8
bottom_outsideCutPath
10
967.8125
20
3
11
991.4375
21
3
0
LINE
8
bottom_outsideCutPath
10
991.4375
20
3
11
991.4375
21
6
0
LINE
8
bottom_outsideCutPath
10
991.4375
20
6
11
1015.0625
21
6
0
LINE
8
bottom_outsideCutPath
10
1015.0625
20
6
11
1015.0625
21
3
0
LINE
8
bottom_outsideCutPath
10
1015.0625
20
3
11
1038.6875
21
3
0
LINE
8
bottom_outsideCutPath
10
1038.6875
20
3
11
1038.6875
21
6
0
LINE
8
bottom_outsideCutPath
10
1038.6875
20
6
11
1062.3125
21
6
0
LINE
8
bottom_outsideCutPath
10
1062.3125
20
6
11
1062.3125
21
3
0
LINE
8
bottom_outsideCutPath
10
1062.3125
20
3
11
1085.9375
21
3
0
LINE
8
bottom_outsideCutPath
10
1085.9375
20
3
11
1085.9375
21
6
0
LINE
8
bottom_outsideCutPath
10
1085.9375
20
6
11
1103
21
6
0
LINE
8
bottom_outsideCutPath
10
1103
20
6
11
1103
21
28.5625
0
LINE
8
bottom_outsideCutPath
10
1103
20
28.5625
11
1106
21
28.5625
0
LINE
8
bottom_outsideCutPath
10
1106
20
28.5625
11
1106
21
52.1875
0
LINE
8
bottom_outsideCutPath
10
1106
20
52.1875
11
1103
21
52.1875
0
LINE
8
bottom_outsideCutPath
10
1103
20
52.1875
11
1103
21
75.8125
0
LINE
8
bottom_outsideCutPath
10
1103
20
75.8125
11
1106
21
75.8125
0
LINE
8
bottom_outsideCutPath
10
1106
20
75.8125
11
1106
21
99.4375
0
LINE
8
bottom_outsideCutPath
10
1106
20
99.4375
11
1103
21
99.4375
0
LINE
8
bottom_outsideCutPath
10
1103
20
99.4375
11
1103
21
123.0625
0
LINE
8
bottom_outsideCutPath
10
1103
20
123.0625
11
1106
21
123.0625
0
LINE
8
bottom_outsideCutPath
10
1106
20
123.0625
11
1106
21
146.6875
0
LINE
8
bottom_outsideCutPath
10
1106
20
146.6875
11
1103
21
146.6875
0
LINE
8
bottom_outsideCutPath
10
1103
20
146.6875
11
1103
21
170.3125
0
LINE
8
bottom_outsideCutPath
10
1103
20
170.3125
11
1106
21
170.3125
0
LINE
8
bottom_outsideCutPath
10
1106
20
170.3125
11
1106
21
193.9375
0
LINE
8
bottom_outsideCutPath
10
1106
20
193.9375
11
1103
21
193.9375
0
LINE
8
bottom_outsideCutPath
10
1103
20
193.9375
11
1103
21
217.5625
0
LINE
8
bottom_outsideCutPath
10
1103
20
217.5625
11
1106
21
217.5625
0
LINE
8
bottom_outsideCutPath
10
1106
20
217.5625
11
1106
21
241.1875
0
LINE
8
bottom_outsideCutPath
10
1106
20
241.1875
11
1103
21
241.1875
0
LINE
8
bottom_outsideCutPath
10
1103
20
241.1875
11
1103
21
264.8125
0
LINE
8
bottom_outsideCutPath
10
1103
20
264.8125
11
1106
21
264.8125
0
LINE
8
bottom_outsideCutPath
10
1106
20
264.8125
11
1106
21
288.4375
0
LINE
8
bottom_outsideCutPath
10
1106
20
288.4375
11
1103
21
288.4375
0
LINE
8
bottom_outsideCutPath
10
1103
20
288.4375
11
1103
21
312.0625
0
LINE
8
bottom_outsideCutPath
10
1103
20
312.0625
11
1106
21
312.0625
0
LINE
8
bottom_outsideCutPath
10
1106
20
312.0625
11
1106
21
335.6875
0
LINE
8
bottom_outsideCutPath
10
1106
20
335.6875
11
1103
21
335.6875
0
LINE
8
bottom_outsideCutPath
10
1103
20
335.6875
11
1103
21
359.3125
0
LINE
8
bottom_outsideCutPath
10
1103
20
359.3125
11
1106
21
359.3125
0
LINE
8
bottom_outsideCutPath
10
1106
20
359.3125
11
1106
21
382.9375
0
LINE
8
bottom_outsideCutPath
10
1106
20
382.9375
11
1103
21
382.9375
0
LINE
8
bottom_outsideCutPath
10
1103
20
382.9375
11
1103
21
406.5625
0
LINE
8
bottom_outsideCutPath
10
1103
20
406.5625
11
1106
21
406.5625
0
LINE
8
bottom_outsideCutPath
10
1106
20
406.5625
11
1106
21
430.1875
0
LINE
8
bottom_outsideCutPath
10
1106
20
430.1875
11
1103
21
430.1875
0
LINE
8
bottom_outsideCutPath
10
1103
20
430.1875
11
1103
21
453.8125
0
LINE
8
bottom_outsideCutPath
10
1103
20
453.8125
11
1106
21
453.8125
0
LINE
8
bottom_outsideCutPath
10
1106
20
453.8125
11
1106
21
477.4375
0
LINE
8
bottom_outsideCutPath
10
1106
20
477.4375
11
1103
21
477.4375
0
LINE
8
bottom_outsideCutPath
10
1103
20
477.4375
11
1103
21
500
0
LINE
8
bottom_outsideCutPath
10
1103
20
500
11
1085.9375
21
500
0
LINE
8
bottom_outsideCutPath
10
1085.9375
20
500
11
1085.9375
21
503
0
LINE
8
bottom_outsideCutPath
10
1085.9375
20
503
11
1062.3125
21
503
0
LINE
8
bottom_outsideCutPath
10
1062.3125
20
503
11
1062.3125
21
500
0
LINE
8
bottom_outsideCutPath
10
1062.3125
20
500
11
1038.6875
21
500
0
LINE
8
bottom_outsideCutPath
10
1038.6875
20
500
11
1038.6875
21
503
0
LINE
8
bottom_outsideCutPath
10
1038.6875
20
503
11
1015.0625
21
503
0
LINE
8
bottom_outsideCutPath
10
1015.0625
20
503
11
1015.0625
21
500
0
LINE
8
bottom_outsideCutPath
10
1015.0625
20
500
11
991.4375
21
500
0
LINE
8
bottom_outsideCutPath
10
991.4375
20
500
11
991.4375
21
503
0
LINE
8
bottom_outsideCutPath
10
991.4375
20
503
11
967.8125
21
503
0
LINE
8
bottom_outsideCutPath
10
967.8125
20
503
11
967.8125
21
500
0
LINE
8
bottom_outsideCutPath
10
967.8125
20
500
11
944.1875
21
500
0
LINE
8
bottom_outsideCutPath
10
944.1875
20
500
11
944.1875
21
503
0
LINE
8
bottom_outsideCutPath
10
944.1875
20
503
11
920.5625
21
503
0
LINE
8
bottom_outsideCutPath
10
920.5625
20
503
11
920.5625
21
500
0
LINE
8
bottom_outsideCutPath
10
920.5625
20
500
11
896.9375
21
500
0
LINE
8
bottom_outsideCutPath
10
896.9375
20
500
11
896.9375
21
503
0
LINE
8
bottom_outsideCutPath
10
896.9375
20
503
11
873.3125
21
503
0
LINE
8
bottom_outsideCutPath
10
873.3125
20
503
11
873.3125
21
500
0
LINE
8
bottom_outsideCutPath
10
873.3125
20
500
11
849.6875
21
500
0
LINE
8
bottom_outsideCutPath
10
849.6875
20
500
11
849.6875
21
503
0
LINE
8
bottom_outsideCutPath
10
849.6875
20
503
11
826.0625
21
503
0
LINE
8
bottom_outsideCutPath
10
826.0625
20
503
11
826.0625
21
500
0
LINE
8
bottom_outsideCutPath
10
826.0625
20
500
11
809
21
500
0
LINE
8
bottom_labelLayer
10
862.1619673
20
234.6316174
11
861.8104048
21
234.6316174
0
LINE
8
bottom_labelLayer
10
861.8104048
20
234.6316174
11
860.7850141
21
230.500758
0
LINE
8
bottom_labelLayer
10
860.7850141
20
230.500758
11
857.298686
21
230.500758
0
LINE
8
bottom_labelLayer
10
857.298686
20
230.500758
11
857.298686
21
276.0866955
0
LINE
8
bottom_labelLayer
10
857.298686
20
276.0866955
11
862.1619673
21
276.0866955
0
LINE
8
bottom_labelLayer
10
862.1619673
20
276.0866955
11
862.1619673
21
265.0124768
0
LINE
8
bottom_labelLayer
10
861.9275923
20
258.3327893
11
862.1619673
21
258.3327893
0
ARC
8
bottom_labelLayer
10
872.3859847
20
248.2743225
40
14.8638703
50
74.2393285
51
90.5623808
0
ARC
8
bottom_labelLayer
10
873.3688344
20
251.8799445
40
11.1268919
50
38.5631274
51
74.067038
0
ARC
8
bottom_labelLayer
10
870.8395207
20
249.9132558
40
14.3306579
50
16.470927
51
38.4075284
0
ARC
8
bottom_labelLayer
10
863.5529483
20
247.6283988
40
21.9663957
50
5.1338446
51
16.7973412
0
ARC
8
bottom_labelLayer
10
854.3542643
20
246.651249
40
31.215977
50
359.8779295
51
5.4093621
0
ARC
8
bottom_labelLayer
10
857.0561318
20
246.4165127
40
28.5145349
50
350.6562786
51
0.338035
0
ARC
8
bottom_labelLayer
10
866.9967546
20
244.7257206
40
18.4313718
50
335.8305938
51
350.8254827
0
ARC
8
bottom_labelLayer
10
871.3694607
20
242.8383985
40
13.6694161
50
321.3161476
51
335.5436165
0
ARC
8
bottom_labelLayer
10
873.0411772
20
241.4762039
40
11.5130755
50
274.064006
51
321.4081019
0
ARC
8
bottom_labelLayer
10
872.2623797
20
246.409441
40
16.4946354
50
269.9225823
51
275.5481518
0
ARC
8
bottom_labelLayer
10
872.1580798
20
244.6659797
40
14.7513872
50
255.7755403
51
270.3185458
0
ARC
8
bottom_labelLayer
10
871.7371208
20
242.7956929
40
12.8351071
50
245.9801635
51
255.5455704
0
ARC
8
bottom_labelLayer
10
870.9217507
20
240.8995432
40
10.7712907
50
215.5850214
51
245.8361675
0
ARC
8
bottom_labelLayer
10
760.7662159
20
264.9267573
40
101.3957876
50
358.1123239
51
0.0484376
0
ARC
8
bottom_labelLayer
10
788.986518
20
263.9793275
40
73.1595934
50
355.7238607
51
358.1258986
0
ARC
8
bottom_labelLayer
10
801.3719707
20
263.1288278
40
60.7452491
50
355.4715955
51
355.6527708
0
ARC
8
bottom_labelLayer
10
871.2317747
20
252.0081689
40
11.0572253
50
95.1835129
51
145.1109004
0
ARC
8
bottom_labelLayer
10
872.2036611
20
246.5276235
40
16.6098931
50
89.8743307
51
96.8145396
0
ARC
8
bottom_labelLayer
10
871.435151
20
245.3993643
40
13.6662262
50
89.5731302
51
100.7324234
0
ARC
8
bottom_labelLayer
10
870.4234703
20
250.5107278
40
8.4559798
50
100.4469433
51
119.6700707
0
ARC
8
bottom_labelLayer
10
869.4853353
20
252.2646831
40
6.4678216
50
120.1402907
51
142.4248982
0
ARC
8
bottom_labelLayer
10
871.0374049
20
251.2379397
40
8.3250883
50
143.3382391
51
161.2559894
0
ARC
8
bottom_labelLayer
10
877.5278451
20
248.9336156
40
15.2120784
50
160.8926354
51
171.233432
0
ARC
8
bottom_labelLayer
10
888.3628806
20
247.1856666
40
26.1870476
50
171.0667768
51
177.8456894
0
ARC
8
bottom_labelLayer
10
899.631283
20
246.6125586
40
37.469326
50
177.6176745
51
180.0425348
0
ARC
8
bottom_labelLayer
10
894.3173249
20
246.4591786
40
32.1556027
50
179.7762662
51
185.707527
0
ARC
8
bottom_labelLayer
10
881.6395135
20
245.1529125
40
19.4107718
50
185.5924796
51
194.2050706
0
ARC
8
bottom_labelLayer
10
873.5182449
20
243.04516
40
11.0207091
50
193.9430382
51
208.0218404
0
ARC
8
bottom_labelLayer
10
870.2323498
20
241.3735345
40
7.3349969
50
208.5536531
51
217.5605379
0
ARC
8
bottom_labelLayer
10
869.9646418
20
241.2621891
40
7.055304
50
218.1690527
51
253.8047154
0
ARC
8
bottom_labelLayer
10
871.2732611
20
245.2967922
40
11.2955546
50
253.1382382
51
266.8483197
0
ARC
8
bottom_labelLayer
10
871.640222
20
249.624408
40
15.637328
50
266.377574
51
270.0510503
0
ARC
8
bottom_labelLayer
10
871.7578966
20
243.6814304
40
9.6948993
50
269.3868859
51
285.8630682
0
ARC
8
bottom_labelLayer
10
872.4781657
20
241.0782797
40
6.9940296
50
286.0162899
51
326.849735
0
ARC
8
bottom_labelLayer
10
869.001765
20
243.3812677
40
11.1640003
50
326.7105051
51
343.6661748
0
ARC
8
bottom_labelLayer
10
862.4941443
20
245.3697838
40
17.9683764
50
343.4171401
51
353.6369107
0
ARC
8
bottom_labelLayer
10
852.6650814
20
246.5360707
40
27.8662329
50
353.4934776
51
0.2205491
0
ARC
8
bottom_labelLayer
10
851.7986767
20
246.759639
40
28.7326666
50
359.7680799
51
6.3095283
0
ARC
8
bottom_labelLayer
10
862.6216741
20
248.0016457
40
17.8387883
50
6.1648647
51
16.0396429
0
ARC
8
bottom_labelLayer
10
869.5936903
20
250.0562985
40
10.5705923
50
15.7779391
51
32.015128
0
ARC
8
bottom_labelLayer
10
871.7677092
20
251.3012745
40
8.0677905
50
32.7034216
51
35.5242113
0
ARC
8
bottom_labelLayer
10
872.5629747
20
251.8665107
40
7.0921192
50
35.5408358
51
79.8011275
0
ARC
8
bottom_labelLayer
10
871.6105747
20
247.8176722
40
11.2477798
50
78.6781316
51
90.3749564
0
ARC
8
bottom_labelLayer
10
896.6608398
20
246.4153897
40
25.120839
50
349.1761914
51
0.3862637
0
ARC
8
bottom_labelLayer
10
905.1184345
20
244.7293512
40
16.4972297
50
330.2507061
51
349.4116494
0
ARC
8
bottom_labelLayer
10
907.7212478
20
243.3765131
40
13.5666726
50
318.1439751
51
329.7566178
0
ARC
8
bottom_labelLayer
10
908.1910242
20
243.0000343
40
12.9656045
50
278.8959163
51
317.9979113
0
ARC
8
bottom_labelLayer
10
906.9806004
20
248.7992874
40
18.8846461
50
269.7502869
51
279.8033202
0
ARC
8
bottom_labelLayer
10
906.7842933
20
245.5317635
40
15.617359
50
253.5436922
51
270.4182459
0
ARC
8
bottom_labelLayer
10
906.2644214
20
243.5207713
40
13.5416604
50
238.8115515
51
253.2428352
0
ARC
8
bottom_labelLayer
10
906.0966405
20
243.1833671
40
13.1661725
50
207.7946998
51
238.675799
0
ARC
8
bottom_labelLayer
10
908.5042396
20
244.6578958
40
15.9846056
50
205.6560123
51
208.4461081
0
ARC
8
bottom_labelLayer
10
910.3585629
20
245.4305261
40
17.9909491
50
188.9102476
51
205.3171434
0
ARC
8
bottom_labelLayer
10
916.6079831
20
246.4889763
40
24.3290168
50
179.7744666
51
189.0932876
0
ARC
8
bottom_labelLayer
10
917.5298811
20
246.7557738
40
25.2513055
50
169.244298
51
180.388077
0
ARC
8
bottom_labelLayer
10
908.9547313
20
248.4507697
40
16.5106096
50
150.7111481
51
169.469545
0
ARC
8
bottom_labelLayer
10
906.2172914
20
249.8565432
40
13.4358657
50
138.1759488
51
150.228734
0
ARC
8
bottom_labelLayer
10
905.7619263
20
250.2059826
40
12.8635802
50
99.175936
51
137.9832762
0
ARC
8
bottom_labelLayer
10
907.0152334
20
244.3077755
40
18.8885008
50
89.7326375
51
100.0759795
0
ARC
8
bottom_labelLayer
10
907.2657241
20
246.8550169
40
16.3418601
50
73.522273
51
90.5692225
0
ARC
8
bottom_labelLayer
10
908.2240786
20
250.3369705
40
12.7312651
50
41.1445654
51
73.2133849
0
ARC
8
bottom_labelLayer
10
906.3946586
20
248.7646093
40
15.1434786
50
13.5014352
51
41.0703408
0
ARC
8
bottom_labelLayer
10
899.3267252
20
246.9150242
40
22.4483953
50
1.127719
51
13.880004
0
ARC
8
bottom_labelLayer
10
893.2388938
20
246.5887848
40
28.5422143
50
359.9918854
51
1.5419723
0
ARC
8
bottom_labelLayer
10
921.9454651
20
246.4583564
40
24.6275721
50
179.705963
51
187.9160748
0
ARC
8
bottom_labelLayer
10
912.9128352
20
245.1608298
40
15.5023714
50
187.7639258
51
200.0976842
0
ARC
8
bottom_labelLayer
10
907.936797
20
243.3376035
40
10.2028334
50
200.0845898
51
216.9131582
0
ARC
8
bottom_labelLayer
10
906.1197226
20
242.040128
40
7.9709112
50
217.300957
51
261.709909
0
ARC
8
bottom_labelLayer
10
906.9632701
20
246.0654484
40
12.0784751
50
260.5033163
51
270.2476788
0
ARC
8
bottom_labelLayer
10
907.1242785
20
245.2827181
40
11.2961558
50
269.4481638
51
284.7255665
0
ARC
8
bottom_labelLayer
10
908.0185286
20
241.9662317
40
7.8613226
50
284.5662307
51
322.6333854
0
ARC
8
bottom_labelLayer
10
905.9277249
20
243.4767438
40
10.4400009
50
323.0089296
51
342.6390497
0
ARC
8
bottom_labelLayer
10
899.9475882
20
245.431225
40
16.7311008
50
342.3615695
51
353.7537604
0
ARC
8
bottom_labelLayer
10
891.1249187
20
246.4946856
40
25.6172851
50
353.5363026
51
0.2014221
0
ARC
8
bottom_labelLayer
10
892.4766343
20
246.7085919
40
24.2657271
50
359.7075678
51
7.8972694
0
ARC
8
bottom_labelLayer
10
901.3634273
20
247.9825953
40
15.2882265
50
7.7439916
51
20.0690174
0
ARC
8
bottom_labelLayer
10
906.3154926
20
249.7998162
40
10.0132709
50
20.0257084
51
37.435051
0
ARC
8
bottom_labelLayer
10
907.9585504
20
250.9657052
40
8.0002463
50
37.9577658
51
80.4006207
0
ARC
8
bottom_labelLayer
10
907.0248554
20
246.7996514
40
12.265748
50
79.3453451
51
90.3174856
0
ARC
8
bottom_labelLayer
10
906.8519692
20
247.4916358
40
11.5740509
50
89.480601
51
103.8805013
0
ARC
8
bottom_labelLayer
10
905.8794495
20
251.19499
40
7.7457365
50
103.4685227
51
142.3118879
0
ARC
8
bottom_labelLayer
10
907.7701009
20
249.8653494
40
10.0553314
50
142.9025723
51
162.3749646
0
ARC
8
bottom_labelLayer
10
913.7275435
20
247.8800446
40
16.3344843
50
162.0653098
51
173.1674904
0
ARC
8
bottom_labelLayer
10
923.016798
20
246.6952512
40
25.6988185
50
173.0086127
51
180.2463811
0
LINE
8
bottom_labelLayer
10
945.0721235
20
234.5144299
11
945.0721235
21
230.7937268
0
LINE
8
bottom_labelLayer
10
930.658061
20
239.7292737
11
930.658061
21
258.8308362
0
LINE
8
bottom_labelLayer
10
930.658061
20
258.8308362
11
926.0584516
21
258.8308362
0
LINE
8
bottom_labelLayer
10
926.0584516
20
258.8308362
11
926.0584516
21
261.1745862
0
LINE
8
bottom_labelLayer
10
926.0584516
20
261.1745862
11
930.658061
21
263.1960705
0
LINE
8
bottom_labelLayer
10
930.658061
20
263.1960705
11
932.7088423
21
270.0515393
0
LINE
8
bottom_labelLayer
10
932.7088423
20
270.0515393
11
935.5213423
21
270.0515393
0
LINE
8
bottom_labelLayer
10
935.5213423
20
270.0515393
11
935.5213423
21
262.610133
0
LINE
8
bottom_labelLayer
10
935.5213423
20
262.610133
11
944.8377485
21
262.610133
0
LINE
8
bottom_labelLayer
10
944.8377485
20
262.610133
11
944.8377485
21
258.8308362
0
LINE
8
bottom_labelLayer
10
944.8377485
20
258.8308362
11
935.5213423
21
258.8308362
0
LINE
8
bottom_labelLayer
10
935.5213423
20
258.8308362
11
935.5213423
21
239.9343518
0
ARC
8
bottom_labelLayer
10
940.7109454
20
249.9001371
40
15.9716795
50
269.8803512
51
278.3028296
0
ARC
8
bottom_labelLayer
10
940.8623028
20
248.6623417
40
14.7250295
50
278.4155646
51
279.0079648
0
ARC
8
bottom_labelLayer
10
939.070837
20
260.1066306
40
26.3086738
50
278.9590039
51
280.5104318
0
ARC
8
bottom_labelLayer
10
940.7788438
20
250.9421503
40
16.9863944
50
280.4847462
51
282.6268366
0
ARC
8
bottom_labelLayer
10
942.2766096
20
244.2880095
40
10.1657777
50
282.5876982
51
285.5794928
0
ARC
8
bottom_labelLayer
10
943.0268035
20
241.5288197
40
7.3065039
50
285.7239285
51
286.2561122
0
ARC
8
bottom_labelLayer
10
943.0274766
20
235.118267
40
4.7835373
50
287.9888137
51
295.3048307
0
ARC
8
bottom_labelLayer
10
941.8737267
20
238.608885
40
8.4598589
50
283.3069236
51
288.1197893
0
ARC
8
bottom_labelLayer
10
940.6548989
20
243.6929774
40
13.6879924
50
280.0070073
51
283.3735269
0
ARC
8
bottom_labelLayer
10
939.839483
20
248.118034
40
18.1874539
50
279.1863007
51
280.1143526
0
ARC
8
bottom_labelLayer
10
939.3388035
20
250.9659712
40
21.078833
50
275.5260461
51
279.2939362
0
ARC
8
bottom_labelLayer
10
939.9029083
20
245.0739747
40
15.1598982
50
270.8932561
51
275.5483669
0
ARC
8
bottom_labelLayer
10
939.9737668
20
242.3824453
40
12.4676248
50
270.003219
51
270.7604901
0
ARC
8
bottom_labelLayer
10
939.7782195
20
242.6154891
40
12.7021847
50
253.7848001
51
270.8852507
0
ARC
8
bottom_labelLayer
10
938.2733491
20
237.4833032
40
7.3539397
50
190.3817682
51
253.877238
0
ARC
8
bottom_labelLayer
10
945.9436466
20
239.5572162
40
15.2865539
50
179.3550951
51
192.8477624
0
ARC
8
bottom_labelLayer
10
945.3141846
20
239.8731026
40
9.7930339
50
179.6416492
51
189.7505848
0
ARC
8
bottom_labelLayer
10
941.8570503
20
239.2564806
40
6.2814485
50
189.5479448
51
205.7873695
0
ARC
8
bottom_labelLayer
10
940.4363227
20
238.6013384
40
4.7172803
50
206.1294402
51
221.4083909
0
ARC
8
bottom_labelLayer
10
940.2770187
20
238.4804623
40
4.5178739
50
221.5949217
51
262.3505132
0
ARC
8
bottom_labelLayer
10
940.6558878
20
240.428746
40
6.5002898
50
261.3266146
51
270.1913113
0
LINE
8
bottom_labelLayer
10
966.2537641
20
234.5144299
11
966.2537641
21
230.7937268
0
LINE
8
bottom_labelLayer
10
951.8397016
20
239.7292737
11
951.8397016
21
258.8308362
0
LINE
8
bottom_labelLayer
10
951.8397016
20
258.8308362
11
947.2400923
21
258.8308362
0
LINE
8
bottom_labelLayer
10
947.2400923
20
258.8308362
11
947.2400923
21
261.1745862
0
LINE
8
bottom_labelLayer
10
947.2400923
20
261.1745862
11
951.8397016
21
263.1960705
0
LINE
8
bottom_labelLayer
10
951.8397016
20
263.1960705
11
953.8904829
21
270.0515393
0
LINE
8
bottom_labelLayer
10
953.8904829
20
270.0515393
11
956.7029829
21
270.0515393
0
LINE
8
bottom_labelLayer
10
956.7029829
20
270.0515393
11
956.7029829
21
262.610133
0
LINE
8
bottom_labelLayer
10
956.7029829
20
262.610133
11
966.0193891
21
262.610133
0
LINE
8
bottom_labelLayer
10
966.0193891
20
262.610133
11
966.0193891
21
258.8308362
0
LINE
8
bottom_labelLayer
10
966.0193891
20
258.8308362
11
956.7029829
21
258.8308362
0
LINE
8
bottom_labelLayer
10
956.7029829
20
258.8308362
11
956.7029829
21
239.9343518
0
ARC
8
bottom_labelLayer
10
961.892586
20
249.9001371
40
15.9716795
50
269.8803512
51
278.3028296
0
ARC
8
bottom_labelLayer
10
962.0439434
20
248.6623417
40
14.7250295
50
278.4155646
51
279.0079648
0
ARC
8
bottom_labelLayer
10
960.2524776
20
260.1066306
40
26.3086738
50
278.9590039
51
280.5104318
0
ARC
8
bottom_labelLayer
10
961.9604845
20
250.9421503
40
16.9863944
50
280.4847462
51
282.6268366
0
ARC
8
bottom_labelLayer
10
963.4582502
20
244.2880095
40
10.1657777
50
282.5876982
51
285.5794928
0
ARC
8
bottom_labelLayer
10
964.2084441
20
241.5288197
40
7.3065039
50
285.7239285
51
286.2561122
0
ARC
8
bottom_labelLayer
10
964.2091173
20
235.118267
40
4.7835373
50
287.9888137
51
295.3048307
0
ARC
8
bottom_labelLayer
10
963.0553674
20
238.608885
40
8.4598589
50
283.3069236
51
288.1197893
0
ARC
8
bottom_labelLayer
10
961.8365396
20
243.6929774
40
13.6879924
50
280.0070073
51
283.3735269
0
ARC
8
bottom_labelLayer
10
961.0211236
20
248.118034
40
18.1874539
50
279.1863007
51
280.1143526
0
ARC
8
bottom_labelLayer
10
960.5204442
20
250.9659712
40
21.078833
50
275.5260461
51
279.2939362
0
ARC
8
bottom_labelLayer
10
961.0845489
20
245.0739747
40
15.1598982
50
270.8932561
51
275.5483669
0
ARC
8
bottom_labelLayer
10
961.1554074
20
242.3824453
40
12.4676248
50
270.003219
51
270.7604901
0
ARC
8
bottom_labelLayer
10
960.9598601
20
242.6154891
40
12.7021847
50
253.7848001
51
270.8852507
0
ARC
8
bottom_labelLayer
10
959.4549897
20
237.4833032
40
7.3539397
50
190.3817682
51
253.877238
0
ARC
8
bottom_labelLayer
10
967.1252872
20
239.5572162
40
15.2865539
50
179.3550951
51
192.8477624
0
ARC
8
bottom_labelLayer
10
966.4958253
20
239.8731026
40
9.7930339
50
179.6416492
51
189.7505848
0
ARC
8
bottom_labelLayer
10
963.038691
20
239.2564806
40
6.2814485
50
189.5479448
51
205.7873695
0
ARC
8
bottom_labelLayer
10
961.6179633
20
238.6013384
40
4.7172803
50
206.1294402
51
221.4083909
0
ARC
8
bottom_labelLayer
10
961.4586594
20
238.4804623
40
4.5178739
50
221.5949217
51
262.3505132
0
ARC
8
bottom_labelLayer
10
961.8375284
20
240.428746
40
6.5002898
50
261.3266146
51
270.1913113
0
ARC
8
bottom_labelLayer
10
975.2643554
20
246.4153897
40
25.120839
50
349.1761914
51
0.3862637
0
ARC
8
bottom_labelLayer
10
983.7219502
20
244.7293512
40
16.4972297
50
330.2507061
51
349.4116494
0
ARC
8
bottom_labelLayer
10
986.3247634
20
243.3765131
40
13.5666726
50
318.1439751
51
329.7566178
0
ARC
8
bottom_labelLayer
10
986.7945398
20
243.0000343
40
12.9656045
50
278.8959163
51
317.9979113
0
ARC
8
bottom_labelLayer
10
985.584116
20
248.7992874
40
18.8846461
50
269.7502869
51
279.8033202
0
ARC
8
bottom_labelLayer
10
985.387809
20
245.5317635
40
15.617359
50
253.5436922
51
270.4182459
0
ARC
8
bottom_labelLayer
10
984.867937
20
243.5207713
40
13.5416604
50
238.8115515
51
253.2428352
0
ARC
8
bottom_labelLayer
10
984.7001561
20
243.1833671
40
13.1661725
50
207.7946998
51
238.675799
0
ARC
8
bottom_labelLayer
10
987.1077553
20
244.6578958
40
15.9846056
50
205.6560123
51
208.4461081
0
ARC
8
bottom_labelLayer
10
988.9620785
20
245.4305261
40
17.9909491
50
188.9102476
51
205.3171434
0
ARC
8
bottom_labelLayer
10
995.2114987
20
246.4889763
40
24.3290168
50
179.7744666
51
189.0932876
0
ARC
8
bottom_labelLayer
10
996.1333967
20
246.7557738
40
25.2513055
50
169.244298
51
180.388077
0
ARC
8
bottom_labelLayer
10
987.5582469
20
248.4507697
40
16.5106096
50
150.7111481
51
169.469545
0
ARC
8
bottom_labelLayer
10
984.820807
20
249.8565432
40
13.4358657
50
138.1759488
51
150.228734
0
ARC
8
bottom_labelLayer
10
984.3654419
20
250.2059826
40
12.8635802
50
99.175936
51
137.9832762
0
ARC
8
bottom_labelLayer
10
985.618749
20
244.3077755
40
18.8885008
50
89.7326375
51
100.0759795
0
ARC
8
bottom_labelLayer
10
985.8692397
20
246.8550169
40
16.3418601
50
73.522273
51
90.5692225
0
ARC
8
bottom_labelLayer
10
986.8275942
20
250.3369705
40
12.7312651
50
41.1445654
51
73.2133849
0
ARC
8
bottom_labelLayer
10
984.9981742
20
248.7646093
40
15.1434786
50
13.5014352
51
41.0703408
0
ARC
8
bottom_labelLayer
10
977.9302408
20
246.9150242
40
22.4483953
50
1.127719
51
13.880004
0
ARC
8
bottom_labelLayer
10
971.8424094
20
246.5887848
40
28.5422143
50
359.9918854
51
1.5419723
0
ARC
8
bottom_labelLayer
10
1000.5489807
20
246.4583564
40
24.6275721
50
179.705963
51
187.9160748
0
ARC
8
bottom_labelLayer
10
991.5163508
20
245.1608298
40
15.5023714
50
187.7639258
51
200.0976842
0
ARC
8
bottom_labelLayer
10
986.5403126
20
243.3376035
40
10.2028334
50
200.0845898
51
216.9131582
0
ARC
8
bottom_labelLayer
10
984.7232382
20
242.040128
40
7.9709112
50
217.300957
51
261.709909
0
ARC
8
bottom_labelLayer
10
985.5667857
20
246.0654484
40
12.0784751
50
260.5033163
51
270.2476788
0
ARC
8
bottom_labelLayer
10
985.7277942
20
245.2827181
40
11.2961558
50
269.4481638
51
284.7255665
0
ARC
8
bottom_labelLayer
10
986.6220442
20
241.9662317
40
7.8613226
50
284.5662307
51
322.6333854
0
ARC
8
bottom_labelLayer
10
984.5312405
20
243.4767438
40
10.4400009
50
323.0089296
51
342.6390497
0
ARC
8
bottom_labelLayer
10
978.5511038
20
245.431225
40
16.7311008
50
342.3615695
51
353.7537604
0
ARC
8
bottom_labelLayer
10
969.7284343
20
246.4946856
40
25.6172851
50
353.5363026
51
0.2014221
0
ARC
8
bottom_labelLayer
10
971.08015
20
246.7085919
40
24.2657271
50
359.7075678
51
7.8972694
0
ARC
8
bottom_labelLayer
10
979.966943
20
247.9825953
40
15.2882265
50
7.7439916
51
20.0690174
0
ARC
8
bottom_labelLayer
10
984.9190083
20
249.7998162
40
10.0132709
50
20.0257084
51
37.435051
0
ARC
8
bottom_labelLayer
10
986.562066
20
250.9657052
40
8.0002463
50
37.9577658
51
80.4006207
0
ARC
8
bottom_labelLayer
10
985.628371
20
246.7996514
40
12.265748
50
79.3453451
51
90.3174856
0
ARC
8
bottom_labelLayer
10
985.4554849
20
247.4916358
40
11.5740509
50
89.480601
51
103.8805013
0
ARC
8
bottom_labelLayer
10
984.4829651
20
251.19499
40
7.7457365
50
103.4685227
51
142.3118879
0
ARC
8
bottom_labelLayer
10
986.3736165
20
249.8653494
40
10.0553314
50
142.9025723
51
162.3749646
0
ARC
8
bottom_labelLayer
10
992.3310591
20
247.8800446
40
16.3344843
50
162.0653098
51
173.1674904
0
ARC
8
bottom_labelLayer
10
1001.6203136
20
246.6952512
40
25.6988185
50
173.0086127
51
180.2463811
0
LINE
8
bottom_labelLayer
10
1054.7010298
20
230.500758
11
1049.8377485
21
230.500758
0
LINE
8
bottom_labelLayer
10
1049.8377485
20
230.500758
11
1049.8377485
21
251.3894299
0
LINE
8
bottom_labelLayer
10
1034.2225141
20
248.4304455
11
1034.2225141
21
230.500758
0
LINE
8
bottom_labelLayer
10
1034.2225141
20
230.500758
11
1029.3592329
21
230.500758
0
LINE
8
bottom_labelLayer
10
1029.3592329
20
230.500758
11
1029.3592329
21
251.3894299
0
LINE
8
bottom_labelLayer
10
1013.7732954
20
247.3464612
11
1013.7732954
21
230.500758
0
LINE
8
bottom_labelLayer
10
1013.7732954
20
230.500758
11
1008.9100141
21
230.500758
0
LINE
8
bottom_labelLayer
10
1008.9100141
20
230.500758
11
1008.9100141
21
262.610133
0
LINE
8
bottom_labelLayer
10
1008.9100141
20
262.610133
11
1012.8650923
21
262.610133
0
LINE
8
bottom_labelLayer
10
1012.8650923
20
262.610133
11
1013.6561079
21
258.2156018
0
LINE
8
bottom_labelLayer
10
1013.6561079
20
258.2156018
11
1013.8904829
21
258.2156018
0
LINE
8
bottom_labelLayer
10
1033.2264204
20
257.7468518
11
1033.4607954
21
257.7468518
0
LINE
8
bottom_labelLayer
10
1054.7010298
20
251.4480237
11
1054.7010298
21
230.500758
0
ARC
8
bottom_labelLayer
10
1035.4908859
20
251.4658451
40
14.3470661
50
359.6948306
51
8.1471472
0
ARC
8
bottom_labelLayer
10
1040.7753733
20
252.2478898
40
9.0051203
50
7.986452
51
20.7949668
0
ARC
8
bottom_labelLayer
10
1043.6964683
20
253.3668545
40
5.8770611
50
20.7071225
51
40.0217564
0
ARC
8
bottom_labelLayer
10
1044.3372951
20
253.7861384
40
5.1174928
50
41.040811
51
73.1792596
0
ARC
8
bottom_labelLayer
10
1043.4100264
20
250.9816024
40
8.0707256
50
72.6395454
51
86.2568039
0
ARC
8
bottom_labelLayer
10
1043.1129695
20
247.7761543
40
11.289065
50
85.8144503
51
90.0685285
0
ARC
8
bottom_labelLayer
10
1043.0038332
20
246.5515944
40
12.5139822
50
89.5621314
51
101.2961725
0
ARC
8
bottom_labelLayer
10
1042.061319
20
251.0637298
40
7.90474
50
101.003227
51
121.7840505
0
ARC
8
bottom_labelLayer
10
1041.3447835
20
252.3429544
40
6.4402609
50
122.3597419
51
140.2883958
0
ARC
8
bottom_labelLayer
10
1042.6339138
20
251.3977223
40
8.0364612
50
140.976528
51
161.1699515
0
ARC
8
bottom_labelLayer
10
1047.4903974
20
249.6694089
40
13.1910374
50
160.8731766
51
172.5272453
0
ARC
8
bottom_labelLayer
10
1055.6054505
20
248.5486601
40
21.3829993
50
172.3776509
51
180.1829602
0
ARC
8
bottom_labelLayer
10
1061.2912307
20
248.4303672
40
27.0687167
50
179.8941415
51
179.9998341
0
ARC
8
bottom_labelLayer
10
1015.0123703
20
251.4658451
40
14.3470661
50
359.6948306
51
8.1471472
0
ARC
8
bottom_labelLayer
10
1020.2968576
20
252.2478898
40
9.0051203
50
7.986452
51
20.7949668
0
ARC
8
bottom_labelLayer
10
1023.2179527
20
253.3668545
40
5.8770611
50
20.7071225
51
40.0217564
0
ARC
8
bottom_labelLayer
10
1023.8721046
20
253.7953467
40
5.1013966
50
41.061071
51
72.8993555
0
ARC
8
bottom_labelLayer
10
1022.9272703
20
250.9824711
40
8.0681009
50
72.3601027
51
85.956187
0
ARC
8
bottom_labelLayer
10
1022.6074241
20
247.6768936
40
11.3883286
50
85.5237952
51
90.079337
0
ARC
8
bottom_labelLayer
10
1022.4983324
20
246.9865615
40
12.0790102
50
89.5573289
51
101.483205
0
ARC
8
bottom_labelLayer
10
1021.5712261
20
251.3302687
40
7.6378071
50
101.1546307
51
123.0655685
0
ARC
8
bottom_labelLayer
10
1020.9410353
20
252.4280355
40
6.3743894
50
123.7020574
51
142.3021994
0
ARC
8
bottom_labelLayer
10
1022.4172263
20
251.4265701
40
8.1555594
50
143.0769755
51
161.3913841
0
ARC
8
bottom_labelLayer
10
1028.3676868
20
249.3250041
40
14.4658443
50
161.0234497
51
171.4469041
0
ARC
8
bottom_labelLayer
10
1038.2185585
20
247.7818994
40
24.4367344
50
171.3041997
51
178.3501534
0
ARC
8
bottom_labelLayer
10
1047.6337247
20
247.3614183
40
33.8604326
50
178.0976345
51
180.0253092
0
ARC
8
bottom_labelLayer
10
1022.1295385
20
253.3706305
40
9.5580219
50
117.1209535
51
149.5423708
0
ARC
8
bottom_labelLayer
10
1023.1050164
20
251.636843
40
11.5461268
50
93.8343268
51
117.5072145
0
ARC
8
bottom_labelLayer
10
1023.3744428
20
249.2504
40
13.9456729
50
89.9661969
51
94.2831349
0
ARC
8
bottom_labelLayer
10
1023.5358735
20
247.2743993
40
15.9224083
50
77.5572208
51
90.5513004
0
ARC
8
bottom_labelLayer
10
1025.0132991
20
253.6290745
40
9.3989487
50
52.7027077
51
78.0053802
0
ARC
8
bottom_labelLayer
10
1025.5396793
20
254.6084189
40
8.3027556
50
22.2097883
51
51.4970604
0
ARC
8
bottom_labelLayer
10
1042.2708423
20
252.6977943
40
10.1543049
50
119.4041779
51
150.182882
0
ARC
8
bottom_labelLayer
10
1043.3972722
20
250.9847591
40
12.2005102
50
118.2584193
51
120.0629571
0
ARC
8
bottom_labelLayer
10
1043.3937951
20
250.8600487
40
12.3088682
50
95.8635132
51
117.9693211
0
ARC
8
bottom_labelLayer
10
1043.8103761
20
247.8478728
40
15.3482129
50
89.9196906
51
96.2617606
0
ARC
8
bottom_labelLayer
10
1043.9441173
20
246.2914192
40
16.9050239
50
79.9361
51
90.3803751
0
ARC
8
bottom_labelLayer
10
1045.0705242
20
252.391907
40
10.7016523
50
62.9723257
51
80.1665179
0
ARC
8
bottom_labelLayer
10
1046.2480288
20
254.8076961
40
8.0147648
50
44.2290103
51
62.6228994
0
ARC
8
bottom_labelLayer
10
1045.8978127
20
254.6529881
40
8.3746909
50
19.5612034
51
43.3161165
0
ARC
8
bottom_labelLayer
10
1040.8114912
20
252.742561
40
13.8074314
50
7.5041907
51
19.9645345
0
ARC
8
bottom_labelLayer
10
1032.395043
20
251.5606398
40
22.306271
50
359.7107335
51
7.6907253
0
ENDSEC
0
EOF